Cash Johnny - I Still Miss Someone Chords & Tabs

 

I Still Miss Someone Chords & Tabs

Cash Johnny Chords & Tabs

Version: 1 Type: Tab 0 ratings
1 star 2 stars 3 stars 4 stars 5 stars
comments

I Still Miss Someone Tab

   
Hi all,

This intro sounds familiar to my ears...

----------------------
----------------------
----------------------
---------0-0----------
--0-2-4------4----0---
---------------0------


I think the song is played as follows (or it sounds kinda okay when I scratch my 
way through it ;-)

Three chords: A, D and E, played in that order.
[ Tab from: http://www.guitartabs.cc/tabs/c/cash_johnny/i_still_miss_someone_tab.html ]
Play those chords using the alternating bass as shown below...stick a downstroke between 
those notes...

The first 0 underneath the A is the last 0 in the intro above...

    A          D          E
--------     -------    -------
--------     -------    -------
--------     -------    -------
--------     --0----    -------
--0-----     ----0--    --2----
----0---     -------    ----0--

Hope this helps some...

Regards,
jl

Comments