Cary Brothers - Blue Eyes Chords & Tabs

 

Blue Eyes Chords & Tabs

Cary Brothers Chords & Tabs

Version: 1 Type: Tab 0 ratings
1 star 2 stars 3 stars 4 stars 5 stars
comments

Blue Eyes Tab

   
Tuning:E A D G B E
Intro, Verse, Chorus
e|-0-----------4---2--------------------------------------------------------|
B|-0-----------5---4--------------------------------------------------------|
G|-1-----------6---4--------------------------------------------------------|
D|-2-----------6---4--------------------------------------------------------|
A|-2--9--7/2---4---2--------------------------------------------------------|
E|-0------------------------------------------------------------------------|
   E           C#m B
Bridge
e|--0---4--0---2--0--4---2--------------------------------------------------|
B|--2---5--2---4--2--4---2--------------------------------------------------|
G|--2---6--2---4--2--4---2--------------------------------------------------|
D|--2---6--2---4--2--6---4--------------------------------------------------|
A|--0---4--0---2--0--6---4--------------------------------------------------|
E|-------------------4---2--------------------------------------------------|
    A   C#m A  B  A  G#M  F#M

   All the Lights...
e|-2---5--0---2---2---0------2----------------------------------------------|
B|-2---5--0---4---4---2------2----------------------------------------------|
G|-2---6--1---4---4---2------2----------------------------------------------|
D|-4---7--2---4---4---2--6---4----------------------------------------------|
A|-4---7--2---2---2---0--6---4----------------------------------------------|
E|-2---5--0--------------4---2----------------------------------------------|
  F#M  A  E    B  B*  A  G#5  F#M


Thats it, hope you enjoy.
[ Tab from: http://www.guitartabs.cc/tabs/c/cary_brothers/blue_eyes_tab.html ]
Comments