Carus - Thrown Chords & Tabs

 

Thrown Chords & Tabs

Carus Chords & Tabs

Version: 1 Type: Chords

Thrown Chords

   
Thrown, By Carus. (http://www.carus.com.au/)
Released On The Album "Mind's Eye". Tabbed By Carlo Basso.

Sorry there's no lyrics.

/=slide up

Intro:
|E    |F#m  :|

Verse:
|C#m  |A     |E      |E/D# :|

Interlude:
|E    |F#m  :|

Verse:
|C#m  |A     |E      |E/D# :|

Chorus:
|E    |F#m   |A      |     :|


Instrumental:
[ Tab from: http://www.guitartabs.cc/tabs/c/carus/thrown_crd.html ]
  C#m                   E                                                  
  1  +  2  + 3 + 4 +    1  +  2  +  3  +  4  +    1  +  2  +  3  +  4  +
e---------------------|----------12-12-12-12----|-------------------------|
B----------9-9-9-9----|----------12-12-12-12----|----------------------12-|
G----------9-9-9-9----|----------------------13-|----------------------13-|
D-11-11-11---------11-|-14-14-14----------------|-14-14-14-14-14-14-14----|
A-11-11-11------------|-14-14-14----------------|-14-14-14-14-14-14-14----|
E-9--9--9-------------|-12-12-12----------------|-12-12-12-12-12-12-12----|

  E/D#  
  1  +  2  +  3  +     4  +
e----------------------------|
B------------------------12--|
G------------------------13--|   
D-14-14-14-14-14-14/16-14----|       Repeat
A-14-14-14-14-14-14/16-14----|
E-11-11-11-11-11-11/13-11----|

Verse:
|C#m  |A     |E      |E/D# :|

Ending:

A B A B E(broken)