Carulli - Prelude In D Chords & Tabs

 

Prelude In D Chords & Tabs

Carulli Chords & Tabs

Version: 1 Type: Tab 0 ratings
1 star 2 stars 3 stars 4 stars 5 stars
comments

Prelude In D Tab

   
Artist: Carulli
Song: Prelude In D
Tabbed By - Alex Parker

3/4 Timing

Part A

   D                           A
e|-----2-------|-----2-------|-----0-------|-----0-------|
B|---3---3---3-|---3---3---3-|---2---2---2-|---2---2---2-|
G|---------2---|---------2---|---------2---|---------2---|
D|-0-----------|-0-----------|-------------|-------------|
A|-------------|-------------|-0-----------|-0-----------|
E|-------------|-------------|-------------|-------------|
   p,i,m,i,p,i etc

   A7                          D 
e|-----3-------|-----3-------|-----2-------|-----2-------|
B|---2---2---2-|---2---2---2-|---3---3---3-|---3---3---3-|
G|---------2---|---------2---|---------2---|---------2---|
D|-------------|-------------|-0-----------|-0-----------|
A|-0-----------|-0-----------|-------------|-------------|
E|-------------|-------------|-------------|-------------|

   D7                          G/D
e|-----2-------|-----2-------|-----3-------|-----3-------|
B|---1---1---1-|---1---1---1-|---0---0---0-|---0---0---0-|
G|---------2---|---------2---|---------0---|---------0---|
D|-0-----------|-0-----------|-0-----------|-0-----------|
A|-------------|-------------|-------------|-------------|
E|-------------|-------------|-------------|-------------|
[ Tab from: http://www.guitartabs.cc/tabs/c/carulli/prelude_in_d_tab.html ]
   A
e|-----0-------|-----0-------|
B|---2---2---2-|---2---2---2-|
G|---------2---|---------2---|
D|-------------|-------------|
A|-0-----------|-0-----------|
E|-------------|-------------|


Part B

   D             Bm            Cadd9/G       A  
e|-----2---2---|-----2---2---|-----0---0---|-----0---0---|
B|---3---3---3-|---3---3---3-|---3---3---3-|---2---2---2-|
G|-------------|-4-----------|-0-----------|-2-----------|
D|-0-----------|-------------|-------------|-------------|
A|-------------|-------------|-------------|-------------|
E|-------------|-------------|-------------|-------------|
   p,i,m,i,m,i etc                        


Part C

   D             Bm            G #6          A
e|-----2-------|-----2-------|-----0-------|-----0-------|
B|---3---3---3-|---3---3---3-|---3---3---3-|---2---2---2-|
G|-------------|-------------|-------------|-------------|
D|-0-------0---|-------------|-------------|-------------|
A|-------------|-2-------2---|-------------|-0-------0---|
E|-------------|-------------|-3-------3---|-------------|
   p,i,m,i,p,i etc

   D
e|-----2-------|-2-----------|
B|---3---3---3-|-3-----------|
G|---------2---|-2-----------|
D|-0-----------|-0-----------|
A|-------------|-------------|
E|-------------|-------------|
Comments