Carter Family - Wildwood Flower Chords & Tabs

 

Wildwood Flower Chords & Tabs

Carter Family Chords & Tabs

Version: 1 Type: Tab 0 ratings
1 star 2 stars 3 stars 4 stars 5 stars
comments

Wildwood Flower Tab

   
-------------------------------------------------------------------------------------------------
Wildwood Flower - Carter Family
--------------------------------------------------------------------------------------------------
Tabbed by:FoggyMtn
Email:huntmanc15@yahoo.com

Tuning:standard

This is the entire song, not to hard, but a pretty easy old country song that sounds pretty good.

Anywhere there is a strum, i have indicated whether it is an up strum, down strum, or
Thanks and have fun with it.

                                Repeat twice
             ^v            ^v            ^v            ^v    ^v    ^
e|-----------0-------------0-------------1-------------0-----0-----0---------|
B|-----------1-------1-----1-------------0-------------1-----1-----1---------|
G|--------0--0--0h2--------0-------------0-------------0-----0-----0---------|
D|--2--3----------------2-----2h3--2--0-----2p0-----------2------------------|
A|-----------------------------------------------2--3-----------3------------|
E|---------------------------------------------------------------------------|
[ Tab from: http://www.guitartabs.cc/tabs/c/carter_family/wildwood_flower_tab.html ]
                      After the Above is played twice play this
                   ^v          ^v    ^v      ^v          ^             ^v
e|--------------0--0--0--------0-----0-------1-----------0-------------0---------|
B|-----------1-----1-----3--1--1-----1-------1--1--------1-------------1---------|
G|--------0--------0-----------0--0--0--0h2--0-----2--0--0-------------0---------|
D|-------------------------------------------------------------0--0h2------------|
A|----------------------------------------------------------3--------------------|
E|-------------------------------------------------------------------------------|
         ^v      ^           ^v            ^v    ^v    ^
e|-------0-------0-----------1-------------0-----0-----0---------------------|
B|-------1-------1-----------0-------------1-----1-----1---------------------|
G|-------0-------0--0--------0-------------0-----0-----0---------------------|
D|--0h2-----0h2--------2--0-----2p0-----------2------------------------------|
A|-----------------------------------2--3-----------3------------------------|
E|---------------------------------------------------------------------------|
           After the above two lines are played twice play this
                  ^v          ^v    ^v      ^v          ^v            ^v
e|--------------0--0--0--------0-----0-------1-----------0-------------0-------|
B|-----------------1-----3--1--1-----1-------1--1--------1-------------1-------|
G|--------2--3-----0-----------0--0--0--0h2--0-----2--0--0-------------0-------|
D|-------------------------------------------------------------0--0h2----------|
A|---------------------------------------------------------3-------------------|
E|-----------------------------------------------------------------------------|

         ^v      ^           ^v            ^v    ^v
e|-------0-------0-----------1-------------0-----0---------------------------|
B|-------1-------1-----------0-------------1-----1---------------------------|
G|-------0-------0--0--------0-------------0-----0---------------------------|
D|--0h2-----0h2--------2--0-----2p0-----------2------------------------------|
A|-----------------------------------2--3------------------------------------|
E|---------------------------------------------------------------------------|


If you have any questions, comments, or corrections you can email me at
or my AIM sn is FastnFurious151

| /  slide up
| \  slide down
| h  hammer-on
| p  pull-off
| ~  vibrato
| +  harmonic
| x  Mute note
===============================================================================
Comments