Cartel - Honestly Chords & Tabs

 

Honestly Chords & Tabs

Cartel Chords & Tabs

Version: 3 Type: Tab

Honestly Tab

Tabbed by: Tom Lavery
Artist: Cartel
Song: Honestly

If you have any questions or comments... AIM SN: railmaster123 or
email tomlavery2@aol.com
Enjoy!

Standard tuning (EADGbe)



Intro

Guitar 1
|--6-4---------------|
|------7-6-4-6-4-----|
|-----------------6--|
|--------------------|
|--------------------|
|--------------------|

Guitar 2
|--------------------|
|--7-6-------6-------|
|------8-6-8---8-6---|
|--------------------|
|--------------------|
|--------------------|


Verse:

Guitar 1
|------------------------------------|
|------------------------------------|
|--------66--55---------6-6-55/6-66--|
|-44/66--66--66--44/66--6-6-66/6-66--|
|-44/66--44--33--44/66--4-4-33/4-44--|
|-22/44----------22/44---------------|

Guitar 2
|--------------------|
|--------------------|
|-6------------------|32x
|-x------------------|
|-4------------------|
|--------------------|

Prechorus:

Both guitars
|--------------------|
|--------------------|
|--------------------|
|-8--6--4------------|
|-8--6--4------------|
|-6--4--2------------|

|--------------------|
|--------------------|
|-------6------------|
|-8--6--6------------|
|-8--6--4------------|
|-6--4---------------|


Chorus:
[ Tab from: http://www.guitartabs.cc/tabs/c/cartel/honestly_tab_ver_3.html ]
|-------------------------------------------------------|
|-------------------------------------------------------|
|-66666666----------------------------------------------|
|-66666666-88\44444444--888888-666666-444444--66666666--|
|-44444444-88\44444444--888888-666666-444444--66666666--|
|----------66\22222222--666666-444444-222222--44444444--|

Then back to the verse with this:

Guitar 2
|--------------------|
|--------------------|
|-6------------------|8x
|-x------------------|
|-4------------------|
|--------------------|

Verse

Guitar 1
|------------------------------------|
|------------------------------------|
|--------66--55---------6-6-55/6-66--|
|-44/66--66--66--44/66--6-6-66/6-66--|
|-44/66--44--33--44/66--4-4-33/4-44--|
|-22/44----------22/44---------------|

Guitar 2
|--------------------|
|-----6-7-6----------|
|-6-8-------8-6------|
|--------------------|
|--------------------|
|--------------------|

Chorus

Bridge
|--------------------|
|--------------------|
|---66-88------------|
|-8-66-88-444--------|
|-8-44-66-444--------|
|-6-------222--------|

Guitar 2
|-------------9\\\--13\\\-|
|-------11\\\-------------|
|-10\\\-------------------|(Obviously using some effects here)
|-------------------------|
|-------------------------|
|-------------------------|

Chorus

Outro
Guitar 1
|-----4-6-4------------4-9-4------|
|-6-7-------7-6----6-7-------6-7--|
|---------------------------------|
|---------------------------------|
|---------------------------------|
|---------------------------------|

Guitar 2
|---------------------------------|
|-----6-7-6------------6-9-6------|
|-6-8-------8-6----6-8-------8-6--|
|---------------------------------|
|---------------------------------|
|---------------------------------|