Cartel - Burn This City Chords & Tabs

 

Burn This City Chords & Tabs

Cartel Chords & Tabs

Version: 1 Type: Tab 0 ratings
1 star 2 stars 3 stars 4 stars 5 stars
comments

Burn This City Tab

Band : Cartel
Song : Burn This City
Album: Chroma
Tabbed By: Calum (afirock74@hotmail.com)
Tuning: Half step down

x   - Palm Mute
b   - Bend
b~  - Bend Up Then Down
h   - Hammer-On Directly After Note Before

Intro/Verse:
eb|-----------------------|
Bb|----------10-10--------|
Gb|-----9-9--9--9---------|
Db|--9--9-9--7--7--9-9-9--|
Ab|--7--7-7--------9-9-9--|
Eb|--9-------------7-7-7--|

Chorus:
eb|----------------0-0-0-0-0-0---------------------------|
Bb|----------------5-5-5-5-5-5---------------------------|
Gb|----------------6-6-6-6-6-6---------------------------|
Db|-7-7-7-7-7-7-7--6-6-6-6-6-6--4-4-4-4-4-4-4-4-4-4-4-4--|
Ab|-7-7-7-7-7-7-7--4-4-4-4-4-4--4-4-4-4-4-4-4-4-4-4-4-4--|
Eb|-5-5-5-5-5-5-5---------------2-2-2-2-2-2-2-2-2-2-2-2--|

Riff:
eb|----------------------------|
Bb|----------------------------|
Gb|---------9------------------|
Db|--9/11-----11-9---9/11--6b~-|
Ab|----------------11----------|
Eb|----------------------------|
[ Tab from: http://www.guitartabs.cc/tabs/c/cartel/burn_this_city_tab.html ]
Bridge Guitar 1:
eb|--------------------------------------------------|
Bb|--------------------------------------------------|
Gb|-------------------------------------4-4-4-4-4-4--|
Db|-2-2-2-2-2-2-2-2-2-2-2--4-4-4-4-4-4--2-2-2-2-2-2--|
Ab|-2-2-2-2-2-2-2-2-2-2-2--2-2-2-2-2-2--4-4-4-4-4-4--|
Eb|-0-0-0-0-0-0-0-0-0-0-0--4-4-4-4-4-4---------------|

Bridge Guitar 2:
eb|-16--12---16---12--16---12---16-----12--14--11--14--11---12-----12----12-14-|
Bb|---12---12---12--12---12---12-----12------12--12--12--12----12----12--------|
Gb|---------9----------------------13----------------------------13----13------|
Db|----------------------------------------------------------------------------|
Ab|----------------------------------------------------------------------------|
Eb|----------------------------------------------------------------------------|

Outro:
eb|-17-0-17-0-17-0-17-0-19-0-19-0-19/21/19-0--|
Bb|-------------------------------------------|
Gb|-------------------------------------------|
Db|-------------------------------------------|
Ab|-------------------------------------------|
Eb|-------------------------------------------|

Comments