Cars - Moving In Stereo Chords & Tabs

 

Moving In Stereo Chords & Tabs

Cars Chords & Tabs

Version: 1 Type: Tab 0 ratings
1 star 2 stars 3 stars 4 stars 5 stars
comments

Moving In Stereo Tab

   
-------------------------------------------------------------------------------
			     Moving In Stereo - The Cars
-------------------------------------------------------------------------------
Tabbed by:Trupal00p
Email:Truper927@excite.com

Tuning:Standard
[ Tab from: http://www.guitartabs.cc/tabs/c/cars/moving_in_stereo_tab.html ]
The opening is basically just playing the bass note and then struming these chords.
E D D F#. - E D D E - E D C
That goes like this
      E     D     D  F# F# E          E     D     D  E
e|------------------------------------------------------|
b|------------------------------------------------------|
g|----------7-----7-------------------------7-----7-----|
a|----2-----7-----7--4--4--2----------2-----7-----7--2--|
d|----2--5--5--5--5--4--4--2----------2--5--5--5--5--2--|
E|-0--0--------------2--2--0-------0--0--------------0--|

e|-----------------------|
B|-----------------------|
G|--------7--5-----------|
D|----2---7--5-----------|
A|----2---5--3-----------|
E|----0------------------|


the part that is played over this through most of the song is just basically jumping
around on the b-minor scale. that goes like this.
e|------------------------------------10----|
b|-12-10-8-7-8-7--------12-10-8-7-8-7-------|
g|---------------9-7------------------------|
a|------------------------------------------|
d|------------------------------------------|
E|------------------------------------------|

| /  slide up
| \  slide down
| h  hammer-on
| p  pull-off
| ~  vibrato
| +  harmonic
| x  Mute note
===============================================================================
Comments