Cars - Just What I Needed Chords & Tabs

 

Just What I Needed Chords & Tabs

Cars Chords & Tabs

Version: 1 Type: Tab 0 ratings
1 star 2 stars 3 stars 4 stars 5 stars
comments

Just What I Needed Tab

couldnt find a good tab for this song on here.. chorus and some small parts
are missing, but what is here is for the most part correct.

INTRO
e--------------------0---------------------0
B--------------------0---------------------0
G--1--1--1--1--1--1--1---1--1--1--1--1--1--1
D--2--2--2--2--2--2--2---2--2--2--2--2--2--2
A--2--2--2--2--2--2--2---2--2--2--2--2--2--2
E--0--0--0--0--0--0--0---0--0--0--0--0--0--0
  pm pm pm pm pm pm     pm pm pm pm pm pm
[ Tab from: http://www.guitartabs.cc/tabs/c/cars/just_what_i_needed_tab.html ]
VERSE (all palm muted)
e-------------------------------------------------------------------------
B-------------------------------------------------------------------------
G--1--1--1--1--1--1--1--1--4--4--4--4--4--4--4--4--6--6--6--6--6--6--6--6-
D--2--2--2--2--2--2--2--2--4--4--4--4--4--4--4--4--6--6--6--6--6--6--6--6-
A--2--2--2--2--2--2--2--2--2--2--2--2--2--2--2--2--4--4--4--4--4--4--4--4-
E--0--0--0--0--0--0--0--0-------------------------------------------------
  pm pm pm pm pm pm pm pm pm pm pm pm pm pm pm pm pm pm pm pm pm pm pm pm
------------------------ x3  
------------------------
------------------------
--6--6--6--6--6--6--6--6
--6--6--6--6--6--6--6--6
--4--4--4--4--4--4--4--4
 pm pm pm pm pm pm pm pm

PRE-CHORUS
e-------------------------------------------------------------------------
B------------------------------------------------------------------------
G--1--1--1--1--1--1--1--1--4--4--4--4--4--4--4--4------------------------
D--2--2--2--2--2--2--2--2--4--4--4--4--4--4--4--4--6--6--6--6--6--6--6--6-
A--2--2--2--2--2--2--2--2--2--2--2--2--2--2--2--2--6--6--6--6--6--6--6--6-
E--0--0--0--0--0--0--0--0--------------------------4--4--4--4--4--4--4--4-
  pm pm pm pm pm pm pm pm pm pm pm pm pm pm pm pm pm pm pm pm pm pm pm pm
-----------
-----------
--2--2--2--
--2--2--2--
--0--0--0--
-----------
-----------
 pm pm pm
Comments