Cars - Just What I Needed Chords & Tabs

 

Just What I Needed Chords & Tabs

Cars Chords & Tabs

Version: 2 Type: Bass Tab 0 ratings
1 star 2 stars 3 stars 4 stars 5 stars
comments

Just What I Needed Bass Tab

   
"JUST WHAT I NEEDED"
BY THE CARS
TABBED BY FRANKMAN

                             INTRO

G-----------------------------------------------------------------
D-2-rest-2-rest-2-rest-2-rest-2-2-rest-2-2-rest-2-2-rest-2-2-rest-
A-----------------------------------------------------------------
E-----------------------------------------------------------------


                         FIRST VERSE

G-----------------------------------------------------------------
D-------------------------------------------------2-2-2-2-2-2-2-2-
A-2-2-2-2-2-2-2-2-4-4-4-4-4-4-4-4---------------------------------
E---------------------------------4-4-4-4-4-4-4-4-----------------
                                                                                                                                                                                                       
G-----------------------------------------------------------------
D-------------------------------------------------2-2-2-2-2-2-2-2-
A-2-2-2-2-2-2-2-2-4-4-4-4-4-4-4-4---------------------------------
E---------------------------------4-4-4-4-4-4-4-4-----------------

G-----------------------------------------------------------------
D-------------------------------------------------2-2-2-2-2-2-2-2-
A-2-2-2-2-2-2-2-2-4-4-4-4-4-4-4-4---------------------------------
E---------------------------------4-4-4-4-4-4-4-4-----------------

G-------------------------------------------------
D-------------------------------------------------
A-2-2-2-2-2-2-2-2---------------------------------
E-----------------4-4-4-4-4-4-4-4-5-5-5-5-5-5-5-5-


                           SOLO
[ Tab from: http://www.guitartabs.cc/tabs/c/cars/just_what_i_needed_btab_ver_2.html ]
G-----------------------------------------------------------------
D-2-2-2-2-2-2-2-2-------------------------------------------------
A-----------------2-2-2-2-2-2-2-2-4-4-4-4-4-4-4-4-----------------
E-------------------------------------------------4-4-4-4-4-4-4-4-

G-----------------------------------------------------------------
D-2-2-2-2-2-2-2-2-------------------------------------------------
A-----------------2-2-2-2-2-2-2-2-4-4-4-4-4-4-4-4-----------------
E-------------------------------------------------5-5-5-5-5-5-5-5-


                      SECOND VERSE

G-----------------------------------------------------------------
D-2-2-2-2-2-2-2-2------------------------------------------------- play 3
A-----------------2-2-2-2-2-2-2-2-4-4-4-4-4-4-4-4----------------- times
E-------------------------------------------------4-4-4-4-4-4-4-4-

G-----------------------------------------------------------------
D-2-2-2-2-2-2-2-2-------------------------------------------------
A-----------------2-2-2-2-2-2-2-2---------------------------------
E---------------------------------4-4-4-4-4-4-4-4-5-5-5-5-5-5-5-5-


                         CHORUS

G---------------------------------------------------------------------------
D-----2-------------2-----------2-------------2-----------------------------
A-2-4---2-0-4-2-2-4---2-0-4-2-4---2-0-4-2-2-4---2-0-4-4-4-4-4-4-4-4-4-4-4-4-
E---------------------------------------------------------------------------

G---------
D---------
A-4-4-4-4- play twice
E---------

                   
                            OUTRO

G------------------------- repeat to the end
D-----2-----------2-------
A-2-4---2-4---2-4---2-4---
E-----------4-----------5-
Comments