Cars - I'm Not The One Chords & Tabs

 

I'm Not The One Chords & Tabs

Cars Chords & Tabs

Version: 1 Type: Tab 0 ratings
1 star 2 stars 3 stars 4 stars 5 stars
comments

I'm Not The One Tab

   
#----------------------------------PLEASE NOTE---------------------------------#
#This file is the author's own work and represents their interpretation of the #
#song. You may only use this file for private study, scholarship, or research. #
#------------------------------------------------------------------------------##

I'm Not The One
The Cars
From the Album-"Shake It Up"
1981
Written by Ric Ocasek
Tabbed by Ray Scheidler
stingray12002@yahoo.com



  Bm              F#m         Em       A
E---------------------------------------------
B------------------2---3-------3---2----------
G--------------2-----------4-----------4---2--
D--4---0---4----------------------------------
A---------------------------------------------
E---------------------------------------------


      F#m             Bm      Em       A
E---------------------------------------------
B------------------2---3-------3---2----------
G--0-----------2-----------4-----------4---2--
D------4---4----------------------------------
A---------------------------------------------
E---------------------------------------------


       D   D/C   Gm
E-----------------3------------------8---10---
B------3---3/5---------8---10---11------------
G--0------------------------------------------
D---------------------------------------------
A---------------------------------------------
E---------------------------------------------



[ Tab from: http://www.guitartabs.cc/tabs/c/cars/im_not_the_one_tab.html ]
   D   D/C  Gm
E------------3-------------------8---10-------
B--3---3/5---------8---10---11----------------
G---------------------------------------------
D---------------------------------------------
A---------------------------------------------
E---------------------------------------------




  Bm                       F#m            Em
E------------------0---2----------------------
B----------2---3------------2------3---2------
G------4-----------------------------------4--
D--4------------------------------------------
A---------------------------------------------
E---------------------------------------------


                   A               F#m
E---------------------------------------------
B--------------3---2---0--------------------3-
G--0---2---4---------------2---0----2---4-----
D---------------------------------------------
A---------------------------------------------
E---------------------------------------------


      Bm             Em                   A
E--0------------------------------------------
B------2-----------0--0-----------0---3---2---
G----------2--------------0---2---------------
D--------------2------------------------------
A---------------------------------------------
E---------------------------------------------


                  D  D/C Gm
E-------------------------3-------------8--10-
B--0-------0---2--3--3/5-----8--10--11--------
G------2--------------------------------------
D---------------------------------------------
A---------------------------------------------
E---------------------------------------------
Comments