Carpenters - Jambalaya Chords & Tabs

 

Jambalaya Chords & Tabs

Carpenters Chords & Tabs

Version: 1 Type: Bass Tab 0 ratings
1 star 2 stars 3 stars 4 stars 5 stars
comments

Jambalaya Bass Tab

-------------------------------------------------------------------------------
                             Jambalaya - Carpenters
-------------------------------------------------------------------------------
Tabbed by: Mike Kunz
E-mail: rmjk21@embarqmail.com


  ( Intro )

G|--------|--------|--------|--------|--------|--------|--------|--------|--------|
D|--------|--------|--------|--------|--------|--------|--------|--------|--------|
A|--------|--------|--------|--------|--------|--------|--------|--------|--------|
E|--------|--------|--------|--------|--------|--------|--------|--------|--------|

                                       Thibodeaux
G|--------|--------|--------|---------|--------|--------|--------|-------|-----|
D|--------|--------|--------|---------|--------|--------|--------|---245-|--5--|
A|--------|--------|--------|---------|---2---5|---5-5--|-5---5--|-55----|5---5|
E|--------|--------|--------|---------|-35--3--|-3-----5|---5---5|-------|-----|

  In Style they go hog wild
G|-------|--------|-------|--------|-------|--------|--------|-------|--------|
D|-5---55|42------|-------|-245---5|-------|--------|--------|------2|45---5--|
A|---5---|--5---5-|--5---5|5----5--|-------|--5---5-|5---5---|5---55-|---5---5|
E|-------|----5---|5---5--|--------|-------|3---3---|--5---5-|--5----|--------|

  Pick Guitar
G|--------|--------|-------|--------|-------|--------|--------|-------|--------|
D|-5---5-5|42------|-------|-245---5|-------|--------|--------|------2|45---5--|
A|---5----|--5---5-|--5---5|5----5--|-------|--5---5-|5---5---|5---55-|---5---5|
E|--------|----5---|5---5--|--------|-------|3---3---|--5---5-|--5----|--------|
[ Tab from: http://www.guitartabs.cc/tabs/c/carpenters/jambalaya_btab.html ]
  ( instruments )
G|-------|--------|-------|--------|-------|--------|--------|-------|--------|
D|-5---55|42------|-------|-245---5|-------|--------|--------|------2|45---5--|
A|---5---|--5---5-|--5---5|5----5--|-------|--5---5-|5---5---|5---55-|---5---5|
E|-------|----5---|5---5--|--------|-------|3---3---|--5---5-|--5----|--------|

  swap his
G|-------|--------|-------|--------|-------|--------|--------|-------|--------|
D|-5---55|42------|-------|-245---5|-------|--------|--------|------2|45---5--|
A|---5---|--5---5-|--5---5|5----5--|-------|--5---5-|5---5---|5---55-|---5---5|
E|-------|----5---|5---5--|--------|-------|3---3---|--5---5-|--5----|--------|

  Pick Guitar
G|-------|--------|-------|--------|-------|--------|--------|-------|--------|
D|-5---55|42------|-------|-245---5|-------|--------|--------|------2|45---5--|
A|---5---|--5---5-|--5---5|5----5--|-------|--5---5-|5---5---|5---55-|---5---5|
E|-------|----5---|5---5--|--------|-------|3---3---|--5---5-|--5----|--------|


  Interlude-guitar
G|-------|--------|-------|--------|-------|--------|--------|-------|--------|
D|-5---55|42------|-------|-245---5|-------|--------|--------|------2|45---5--|
A|---5---|--5---5-|--5---5|5----5--|-------|--5---5-|5---5---|5---55-|---5---5|
E|-------|----5---|5---5--|--------|-------|3---3---|--5---5-|--5----|--------|

  Pick Guitar
G|-------|--------|-------|--------|-------|--------|--------|--------|--------|
D|-5---55|42------|-------|-245---5|-------|--------|--------|--------|--------|
A|---5---|--5---5-|--5---5|5----5--|-------|--------|--------|--------|--------|
E|-------|----5---|5---5--|--------|-------|--------|--------|--------|--------|


                                               Jambalaya
G|--------|--------|--------|--------|-\12----|--------|--------|-------|--------|
D|--------|--------|--------|--------|-----9/5|--------|--------|------2|45---5--|
A|--------|--------|--------|--------|--------|--5---5-|5---5---|5---55-|---5---5|
E|--------|--------|--------|--------|--------|3---3---|--5---5-|--5----|--------|

  ( Outro )
G|-------|--------|-------|---\12-9|-7-------|--------|---------|
D|-5---55|42------|-------|-24-----|--\9-5-45|--------|--------5|
A|---5---|--5---5-|--5---5|5-------|---------|--------|-------5-|
E|-------|----5---|5---5--|--------|---------|--------|---------|
Comments