Carpenters - Goodbye To Love Chords & Tabs

 

Goodbye To Love Chords & Tabs

Carpenters Chords & Tabs

Version: 3 Type: Tab 0 ratings
1 star 2 stars 3 stars 4 stars 5 stars
comments

Goodbye To Love Tab

Here is my take on these superb solo's from the Carpenters classic 'Goodbye to Love', as 
played by the late great Tony Peluso.

As always any comments, good or bad, are most welcome.

First Solo

e|--------------------------------------------|
B|-----------------------------------6--------|
G|-----2-3s5-4-3-----5s7-6-5-5-5s7-8---7-7s10-|
D|-3-5-----------4-5--------------------------|
A|--------------------------------------------|
E|--------------------------------------------|

e|--------------------------------------------|
B|--------------------------------------------|
G|-10-10-10-10h12p10-8-7----7---7-------------|
D|-----------------------10---7---10-8-7----8-|
A|---------------------------------------10---|
E|--------------------------------------------|

e|---------------------------------------------------------|
B|---------------------------------------------------------|
G|---------------------------------------------------------|
D|----------8-10-8-10b12-10b12-10b12-10b12-10b12r10-8-10-8-|
A|-8-8-8-10------------------------------------------------|
E|---------------------------------------------------------|

e|---------------------------------------|
B|----------11-13b15r13-11-10------------|
G|-------10-------------------9b11-9-7-9-|
D|-10s12---------------------------------|
A|---------------------------------------|
E|---------------------------------------|

e|---------15----------------------------------------|
B|------11----13b15r13-11----11-11h13p11-11h13p11-s5-|
G|-9s12-------------------12-------------------------|
D|---------------------------------------------------|
A|---------------------------------------------------|
E|---------------------------------------------------|

Outro Solo.

e|-----------------|-------------------|---------------|
B|-----------------|-------------------|-------8--10-8-|
G|-----------5-7-5-|-7b9-7b9-7b9r7-5---|---7-9---------|
D|-------5-7-------|-----------------7-|-s9------------|
A|-5-6-7-----------|-------------------|---------------|
E|-----------------|-------------------|---------------|

e|--------------------------------|-------------|
B|-10b11-10b11-10b11-10b11r10-8-9-|-10----------|
G|--------------------------------|----10-------|
D|--------------------------------|-------10-10-|
A|--------------------------------|-------------|
E|--------------------------------|-------------|

e|-----------------|------------------5-|-------------------|-------|
B|-----------------|--------------------|-7b8r7-5-----------|-------|
G|-7b8r7-5-7b8r7-5-|-7b9r7-5-7b9r7-5----|---------7b9r7-5---|-5---4-|
D|-----------------|--------------------|-----------------7-|-------|
A|-----------------|--------------------|-------------------|-------|
E|-----------------|--------------------|-------------------|-------|
[ Tab from: http://www.guitartabs.cc/tabs/c/carpenters/goodbye_to_love_tab_ver_3.html ]
e|---------------|-----------------|-------8-10b11r10b11r10-8-10-|-10b11r10-8-10-8-8-|
B|---------------|-7b9r7-----------|-----8-----------------------|-------------------|
G|-5-5-----5-----|-------5-7-5-7-5-|-7s9-------------------------|-------------------|
D|-----7-5---7-5-|-----------------|-----------------------------|-------------------|
A|---------------|-----------------|-----------------------------|-------------------|
E|---------------|-----------------|-----------------------------|-------------------|

e|-----8----------|-------|----------|------------------|
B|-8b9---r8-6-8-6-|-6-5---|----------|------------------|
G|----------------|-----5-|----------|-5----------5-7-5-|
D|----------------|-------|---3---5--|-5------5-7-------|
A|----------------|-------|---3---5--|----5s7-----------|
E|----------------|-------|----------|------------------|

e|-----------------|-------8-----8-|-----8-----8-----8-|-----------------|
B|-----8-----8-----|-8-------------|-------------------|-----------------|
G|-7b9---7b9---7b9-|---7b9---7b9---|-7b9---7b9---7b9---|-7b9r7-5---5-7-5-|
D|-----------------|---------------|-------------------|---------7-------|
A|-----------------|---------------|-------------------|-----------------|
E|-----------------|---------------|-------------------|-----------------|

e|----------------|-------------|------8-7-------------|--------|
B|----------------|-------------|----8-----10-10h12p10-|-10--s8-|
G|-7b8---r7-5-7-5-|-7b9r7-5---5-|-s9-------------------|--------|
D|----------------|---------7---|----------------------|--------|
A|----------------|-------------|----------------------|--------|
E|----------------|-------------|----------------------|--------|

e|-------------|---------8---|-6-5---------|-------|-----------------|---------------|
B|-8-6-5-------|-8-6-5-------|-----8-6-5-5-|-6-----|-----------------|---------------|
G|-------7-5---|-------7-----|-------------|---5-5-|-7b8r7-5-7b8r7-5-|-7b9r7-5-5h7-5-|
D|-----------5-|-----------5-|-------------|-------|-----------------|---------------|
A|-------------|-------------|-------------|-------|-----------------|---------------|
E|-------------|-------------|-------------|-------|-----------------|---------------|

e|-------|----------|------|---------------|-8---10-8-|-10b11r10-8-8---8-|
B|-------|----------|------|-6-5---------8-|----------|------------------|
G|-------|-5----5---|----5-|-----7-5--s9---|----------|------------------|
D|-3---5-|-5--5---5-|--5---|---------------|----------|------------------|
A|-3---5-|----------|------|---------------|----------|------------------|
E|-------|----------|------|---------------|----------|------------------|

e|-8------8------|-8-----8-----|---------|-------|
B|---9------9----|---8-----8---|---------|-------|
G|-----10-----10-|-----9-----9-|-9s7-5-7-|-5---4-|
D|---------------|-------------|---------|-------|
A|---------------|-------------|---------|-------|
E|---------------|-------------|---------|-------|

e|-------------------|---------------------|--------|-------|--------|---------|-----|----|
B|-------------------|---------------------|--------|-------|--------|---------|-----|----|
G|-----------------5-|-------------------5-|-7b9-r7-|-5-7-5-|-7b8-r7-|-5-------|-----|----|
D|---------5-5-5h7---|-----------5-5-5h7---|--------|-------|--------|---5h7-5-|-5---|----|
A|-1s3-5s7-----------|-3-3-3-5s7-----------|--------|-------|--------|---------|---5-|-3--|
E|-------------------|---------------------|--------|-------|--------|---------|-----|----|
Comments