Carpenters - Close To You Intro Chords & Tabs

 

Close To You Intro Chords & Tabs

Carpenters Chords & Tabs

Version: 1 Type: Tab 0 ratings
1 star 2 stars 3 stars 4 stars 5 stars
comments

Close To You Intro Tab

e--------3/5---5-3-5-7-----/----5--7/9----5--7/10-----------\
b------3--------------7-7--/-7---------7--------------------\
G----4---------------------/--------------------------------\
D--------------------------/--------------------------------\
A--------------------------/--------------------------------\
E--------------------------/--------------------------------\

[ Tab from: http://www.guitartabs.cc/tabs/c/carpenters/close_to_you_intro_tab.html ]
e--------3/5---------7-5-------3/5--------------------------\
b------3-----------3---------3------------------------------\
G----4-----------4---------4--------------------------------\
D-----------------------------------------------------------\
A-----------------------------------------------------------\
E-----------------------------------------------------------\


This is the intro. 
Comments