Carpark North - Transparent Glasslike Chords & Tabs

 

Transparent Glasslike Chords & Tabs

Carpark North Chords & Tabs

Version: 1 Type: Tab 0 ratings
1 star 2 stars 3 stars 4 stars 5 stars
comments

Transparent Glasslike Tab

*************************************************************************
*        Her er den så til alle jer danskere der har ledt efter         *
*                       Carpark North Soloen!                           *
*      Den er meget nem så det er bare med at finde guitaren frem!      *
*************************************************************************


Af: Samuel Kiil 'sam_kiil@hotmail.com'  -  28-jun-03



E|----------------------------------------------------------------------|
H|-1--0-1--0-1--0-1--3-1--0-1--0-1--0-1--3-5--3-5--3-5--3-5--6-5--3-5---|
G|----------------------------------------------------------------------|
D|----------------------------------------------------------------------|
A|----------------------------------------------------------------------|
E|----------------------------------------------------------------------|

E|----------------------------------------------------------------------|
H|-1-3--1-3--6--5-6--5-6--5-6--8-6--5-6--5-6--5-6--8-10--8-10--8-10-----|
G|----------------------------------------------------------------------|
D|----------------------------------------------------------------------|
A|----------------------------------------------------------------------|
E|----------------------------------------------------------------------|
[ Tab from: http://www.guitartabs.cc/tabs/c/carpark_north/transparent_glasslike_tab.html ]
E|----------------------------------8--7-8--7-8--7-8--10-8--7-8--7-8----|
H|-8-10--13-10--8-10--13-12--10-12--------------------------------------|
G|----------------------------------------------------------------------|
D|----------------------------------------------------------------------|
A|----------------------------------------------------------------------|
E|----------------------------------------------------------------------|

E|-7-8--10-12--10-12--10-12--10-12--13-12--10-12--8-10--8-10--15--13----|
H|----------------------------------------------------------------------|
G|----------------------------------------------------------------------|
D|----------------------------------------------------------------------|
A|----------------------------------------------------------------------|
E|----------------------------------------------------------------------|

E|-13-12--13-12--13-12--15-13--13-12--13-12--13-12--15--12--10-12--8-10-|
H|----------------------------------------------------------------------|
G|----------------------------------------------------------------------|
D|----------------------------------------------------------------------|
A|----------------------------------------------------------------------|
E|----------------------------------------------------------------------|

E|-8-10--7-8--7-8--5-7--5-7--3-5-|
H|-------------------------------|
G|-------------------------------|
D|-------------------------------|
A|-------------------------------|
E|-------------------------------|
Comments