Carpark North - Transparent And Glasslike Chords & Tabs

 

Transparent And Glasslike Chords & Tabs

Carpark North Chords & Tabs

Version: 1 Type: Tab 0 ratings
1 star 2 stars 3 stars 4 stars 5 stars
comments

Transparent And Glasslike Tab

   
                
-----------------------------------
Song  : Transparent & Glasslike
Band  : Carpark North
Album : Carpark North
page  : www.carparknorth.dk
Dato  : 1 April '03
-----------------------------------

Tabbet af : Thomas Christensen (thom@mail1.stofanet.dk)
            & Troels Sporring (Tak for F'et :)


Intro / Main Riff

      Am                             C
e|---------------------------------------------------------------
H|------------------3----------------3-5-3-5-3-5-3-5-6-5-3-5-3---
G|----5-4-5-4-5-4-5---5-4-5-4-5-4-5------------------------------
D|---------------------------------------------------------------
A|---------------------------------------------------------------
E|---------------------------------------------------------------
    G/B      Dm                                F
-----------------------------------------------------------------------------|
-------------6-5-6-5-6-5-6-8-6-5-6-5-6-5-6-5---------------3-----------------|
----5-7-5-7------------------------------------5-4-5-4-5-4---5-4-5-4-5-4-5---|
-----------------------------------------------------------------------------|
-----------------------------------------------------------------------------|
-----------------------------------------------------------------------------|


VERSE:
Am              C              G/B
Stop the clock, stop the cars
Am        Em          Bb
tell your dad, at the plant 
        Am
to come home.
Am            C                G/B
Do not smile, do not sing
Am         Em       Bb    Am
Close your eyes and go to bed.


CHORUS:
F              C
I forgive I pretend
       Em
Not to smile
      Dm            G
Cause I am stronger than you
                      (Am)-main riff
You're transparent and glasslike


VERSE:
Am              C               G/B
Stop Your Mind, Stop your heart
Am        Em    Bb          Am
Tell your girl, not to come home
Am              C
Lock your door, lock it tight
Am    Em   Bb      Am
Go to bed, cut the line.

[ Tab from: http://www.guitartabs.cc/tabs/c/carpark_north/transparent_and_glasslike_tab.html ]
CHORUS:
F              C
I forgive I pretend
       Em
Not to smile
      Dm        G
Cause I am stronger than you
                      (Am)-outro
You're transparent and glasslike


Outro:

e|---------------------------------------------------------------
H|------------------3----------------3-5-3-5-3-5-3-5-6-5-3-5-3---
G|----5-4-5-4-5-4-5---5-4-5-4-5-4-5------------------------------
D|---------------------------------------------------------------
A|---------------------------------------------------------------
E|---------------------------------------------------------------

-----------------------------------------------------------------------------
-------------6-5-6-5-6-5-6-8-6-5-6-5-6-5-6-5---------------3-----------------
----5-7-5-7------------------------------------5-4-5-4-5-4---5-4-5-4-5-4-5---
-----------------------------------------------------------------------------
-----------------------------------------------------------------------------
-----------------------------------------------------------------------------

--------------------------8----------8-7-5-7-----
------8-10-8-10-8-10-8-10---10-8-10--------------
-------------------------------------------------
-------------------------------------------------
-------------------------------------------------
-------------------------------------------------

------8-7-8-7-8-7-8-10-8-7-8-7-8-7-8-7--10-12-10-12-10-12-10-12-13-12-10-12--
-----------------------------------------------------------------------------
-----------------------------------------------------------------------------
-----------------------------------------------------------------------------
-----------------------------------------------------------------------------
-----------------------------------------------------------------------------

-------8-10-8-10--13-12-13-12-13-12-13-15-13-12-13-12----
---------------------------------------------------------
---------------------------------------------------------
---------------------------------------------------------
---------------------------------------------------------
---------------------------------------------------------

-------10-12-10-12--8-10-8-10--7-8-7-8--5-7-5-7--5-------|
-------------------------------------------------5-------|
-------------------------------------------------5-------|
-------------------------------------------------7-------|
-------------------------------------------------7-------|
-------------------------------------------------5-------|
Comments