Carolines Spine - Trio Pain Chords & Tabs

 

Trio Pain Chords & Tabs

Carolines Spine Chords & Tabs

Version: 1 Type: Tab 0 ratings
1 star 2 stars 3 stars 4 stars 5 stars
comments

Trio Pain Tab

   
#----------------------------------PLEASE NOTE---------------------------------#
#This file is the author's own work and represents their interpretation of the #
#song. You may only use this file for private study, scholarship, or research. #
#------------------------------------------------------------------------------##

                                   TRIO' PAIN
                         As recorded by Carolines Spine
                          (From the 1997 Album MONSOON)
				Hollywood Records
				
Words and Music by Jimmy Newquist
Transcribed by Charles Eddy (daemonsbane1@aol.com)

Gtr I (D A D G B E) - 'Mark Haugh'

  Gtr I
      PM--------|       PM------|
|---------------------------------------------------------------------|
|---------------------------------------------------------------------|
|---------------------------------------------------------------------|
|-0-0---------------0-0-----------------------------------------------|
|-0-0-0-0-0-0-0-0-0-0-0-0-0-0-0-0-0-5\-4-0-0-7\-4-/5------------------|
|-0-0-0-0-0-0-0-0-0-0-0-0-0-0-0-0-0-----------------------------------|
|
|---------------------------------------------------------------------|
|---------------------------------------------------------------------|
|---------------------------------------------------------------------|
|-0---0-3-3-2-2-----0---0-3-3-2-2-0----0-3-3-2--2--0---0---3-3-2-2----|
|-0---0-3-3-2-2-----0---0-3-3-2-2-0----0-3-3-2--2--0---0---3-3-2-2----|
|-0---0-3-3-2-2-----0---0-3-3-2-2-0----0-3-3-2--2--0---0---3-3-2-2----|
|
|---------------------------------------------------------------------|
|------------------------------------------------------6b--3-5p3-0----|
|---------------------------------------------------------------------|
|---0-0-3-3-2-2---0-0-3-3-2-2---0-0-3--3-2-2----0--2-3----------------|
|---0-0-3-3-2-2---0-0-3-3-2-2---0-0-3--3-2-2----0--2-3----------------|
|---0-0-3-3-2-2---0-0-3-3-2-2---0-0-3--3-2-2----0--2-3----------------|


                    8x
||------------------||
||o----------------o||
||------------------||
||--0-0-3-3-2-2-----||
||o-0-0-3-3-2-2----o||
||--0-0-3-3-2-2-----||


  PM
|-----------------------------------------------------------------------------|
|-----------------------------------------------------------------------------|
|-----------------------------------------------------------------------------|
|-5-5-5-5-5-5-5-5-7-7-7-7-7-7-7-7-5-5-5-5-5-5-5-5-7---7-7---7-----------------|
|-5-5-5-5-5-5-5-5-7-7-7-7-7-7-7-7-5-5-5-5-5-5-5-5-7---7-7---7-5p4p0-0h7\-4-/5-|
|-5-5-5-5-5-5-5-5-7-7-7-7-7-7-7-7-5-5-5-5-5-5-5-5-7---7-7---7-----------------|
|
|-----------------------------------------------------------------------------|
|-----------------------------------------------------------------------------|
|-----------------------------------------------------------------------------|
|-0---0-3-3-2-2-0---0-3-3-2-2-0---0-3-3-2-2-0-0-0-3b--0-2b--------------------|
|-0---0-3-3-2-2-0---0-3-3-2-2-0---0-3-3-2-2-0-0-------------------------------|
|-0---0-3-3-2-2-0---0-3-3-2-2-0---0-3-3-2-2-0-0-------------------------------|


                     8x
||-------------------||
||o-----------------o||
||-------------------||
||--0--0-3-3-2-2-----||
||o-0--0-3-3-2-2----o||
||--0--0-3-3-2-2-----||

[ Tab from: http://www.guitartabs.cc/tabs/c/carolines_spine/trio_pain_tab.html ]
                                                                 4x
|----------------------------------------------------------------||
|---------------------------------------------------------------o||
|----------------------------------------------------------------||
|-5--5---5--5--5--5--5--5--5--5--7--7--7--7--7--7--7--7--7--7----||
|-5--5---5--5--5--5--5--5--5--5--7--7--7--7--7--7--7--7--7--7---o||
|-5--5---5--5--5--5--5--5--5--5--7--7--7--7--7--7--7--7--7--7----||
|
|                                                                4x
|----------------------------------------------------------------||
|---------------------------------------------------------------o||
|----------------------------------------------------------------||
|-8----3---------------------------------------------------------||
|-8----3--------------------------------------------------------o||
|-8----3---------------------------------------------------------||


|-------------------------|-------------------------|-------------------------|
|-------7-----------------|-------7-----------------|-------7-----------------|
|-5h7------5--3h5---3--7--|-5h7------5--3h5--3--7---|-5=7------5--3h5--3--7---|
|-------------------------|-------------------------|-------------------------|
|-------------------------|-------------------------|-------------------------|
|-------------------------|-------------------------|-------------------------|


                     4x
||-------------------||
||o-----------------o||
||-------------------||
||--0--0-3-3-2-2-----||
||o-0--0-3-3-2-2----o||
||--0--0-3-3-2-2-----||


|--------------------------------------------------------|
|--------------------------------------------------------|
|--------------------------------------------------------|
|-0--0-3-3-2-2-0--0-3-3-2-2-0--0-3-3-2-2-0---0-3-3-2-2---|
|-0--0-3-3-2-2-0--0-3-3-2-2-0--0-3-3-2-2-0---0-3-3-2-2---|
|-0--0-3-3-2-2-0--0-3-3-2-2-0--0-3-3-2-2-0---0-3-3-2-2---|
|
|--------------------------------------------------------|
|--------------------------------------------------------|
|--------------------------------------------------------|
|-0--0-3-3-2-2-0--0-3-3-2-2-0--0-3-3-2-2-0-0-0-0-2-2-3-3-|
|-0--0-3-3-2-2-0--0-3-3-2-2-0--0-3-3-2-2-0-0-0-0-2-2-3-3-|
|-0--0-3-3-2-2-0--0-3-3-2-2-0--0-3-3-2-2-0-0-0-0-2-2-3-3-|


                                                                 4x
||---------------------------------------------------------------||
||o-------------------------------------------------------------o||
||---------------------------------------------------------------||
||--5--5--5--5--5--5--5--5--5--5--7--7--7--7--7--7--7--7--7--7---||
||o-5--5--5--5--5--5--5--5--5--5--7--7--7--7--7--7--7--7--7--7--o||
||--5--5--5--5--5--5--5--5--5--5--7--7--7--7--7--7--7--7--7--7---||
|
|                                                                4x
||---------------------------------------------------------------||
||o-------------------------------------------------------------o||
||---------------------------------------------------------------||
||--8--3---------------------------------------------------------||
||o-8--3--------------------------------------------------------o||
||--8--3---------------------------------------------------------||


|-------------------------|-------------------------|-------------------------|
|-------7-----------------|-------7-----------------|-------7-----------------|
|-5h7------5--3h5--3--7---|-5h7-----5--3h=5--3--7---|-5h7------5--3h5--3--7---|
|-------------------------|-------------------------|-------------------------|
|-------------------------|-------------------------|-------------------------|
|-------------------------|-------------------------|-------------------------|


                                                4x
||----------------------------------------------||
||o---------------------------------------------||
||----------------------------------------------||
||--0--0-3-3-2-2-0--0-3-3-2-2-------------------||
||o-0--0-3-3-2-2-0--0-3-3-2-2-5p4p0-0h7\-4-/5---||
||--0--0-3-3-2-2-0--0-3-3-2-2-------------------||


Tablature Legend
----------------
 h   - hammer-on
 p   - pull-off
 b   - bend
 pb  - pre-bend
 r   - bend release (if no number after the r, then release immediately)
 /\  - slide into or out of (from/to "nowhere")
 s   - legato slide
 S   - shift slide
  - natural harmonic
[n]  - artificial harmonic
n(n) - tapped harmonic
 ~   - vibrato
 tr  - trill
 T   - tap
 TP  - trem. picking
 PM  - palm muting
\n/  - tremolo bar dip; n = amount to dip
 \n  - tremolo bar down
 n/  - tremolo bar up
/n\  - tremolo bar inverted dip
 =   - hold bend; also acts as connecting device for hammers/pulls
   - volume swell (louder/softer)
 x   - on rhythm slash represents muted slash
 o   - on rhythm slash represents single note slash
Comments