Carolines Spine - Sullivan Chords & Tabs

 

Sullivan Chords & Tabs

Carolines Spine Chords & Tabs

Version: 2 Type: Bass Tab 0 ratings
1 star 2 stars 3 stars 4 stars 5 stars
comments

Sullivan Bass Tab

Title:  sullivan
Artist: Carolines Spine
Album:  Monsoon
Tabbed: Towjumper180@aol.com

I have just listed the basic notes for this song I have not written the 
rythm. At first it seems tricky but as you listen to it you should be able to 
get it. The slow part has a few variations I usually just improvise but it 
sounds  like he is  walking up to the octave of the note with a few fills.If 
there are any changes that need to be made e-mail me. 

Intro
G|-------------------
D|-------------------
A|-----2-------------
E|--0----------------
[ Tab from: http://www.guitartabs.cc/tabs/c/carolines_spine/sullivan_btab_ver_2.html ]
Verse                  The last verse before the Intro part
G|--------------------|-------------
D|--------------------|-------------
A|---------2----------|-----------2-
E|--0---3-------------|--0--3--5----

Verse2                 There is a little variation Here
G|--------------------|-------------------
D|--------------------|-------------------
A|---------2----------|-------------------
E|--0---3-------------|--0--3--5-0h5h0----

Chorus
G|--------------------
D|--------------------
A|--7--5-----2--------
E|--------5-----------

Verse3 is the same as Verse2

After Chorus2 the slow part

G|--------------|
D|--------------|
A|-----2--------|
E|--0-----------|

All five of her boys were lost
G|--------------|
D|--------------|
A|--------------|
E|--0--5-5------|
Comments