Carolina Liar - Something To Die For Chords & Tabs

 

Carolina Liar Chords & Tabs

Version: 1 Type: Tab 0 ratings
1 star 2 stars 3 stars 4 stars 5 stars
comments

Something To Die For Tab

   
----------------------------------------------------------------------------
		            SOMETHING TO DIE FOR - Carolina Liar
----------------------------------------------------------------------------
Tabbed by: ahigs
Email: explosives_are_@hotmail.com

Tuning: standard

Okay guys well im pretty sure about this however the chorus chords im a bit
sketchy about so if anyone else has something better please tell me :)


Intro/Verse (guitar 1 plays this)
e|--------------------------|
B|--------------------------|
G|--------------------------|
D|-2-2-55-2-5--10-10-10-----|
A|-2-2-55-2-5--10-10-10-----|
E|-0-0-33-0-3--8--8--8------|

Alternatively,
e|--------------------------|
B|--------------------------|
G|-------------5-5-5--------|
D|-2-2-55-2-5--5-5-5--------|
A|-2-2-55-2-5--3-3-3--------|
E|-0-0-33-0-3---------------|
[ Tab from: http://www.guitartabs.cc/tabs/c/carolina_liar/something_to_die_for_tab.html ]
Chorus (guitar 1) i think
e|--------------------------|
B|--------------------------|
G|--------------------------|
D|--9-----7-----7-----9-----|
A|--9-----7-----7-----9-----|
E|--7-----5-----5-----7-----|
btw thats not the rythm if you listen however its pretty clear :)

and i think guitar two kicks in a little later with the main riff 
if you listen you can hear it

e|--------------------------|
B|--------------------------|
G|--------------------------|
D|-2-2-55-2-5--10-10-10-----|
A|-2-2-55-2-5--10-10-10-----|
E|-0-0-33-0-3--8--8--8------|

All in all a pretty simple song to play from a very talented up and coming band

please dont forget to rate/comment/email if you have any feedback or suggestions

| /  slide up
| \  slide down
| h  hammer-on
| p  pull-off
| ~  vibrato
| +  harmonic
| x  Mute note
============================================================================
Comments