Carolina Liar - Show Me What Im Looking For Chords & Tabs

 

Carolina Liar Chords & Tabs

Version: 1 Type: Bass Tab 0 ratings
1 star 2 stars 3 stars 4 stars 5 stars
comments

Show Me What Im Looking For Bass Tab

   
----------------------------------------------------------------------------
	       SHOW ME WHAT I'M LOOKING FOR - Carolina Liar
----------------------------------------------------------------------------

Tabbed By : Trevor N
e-mail: vancan2007@hotmail.com

Tuning: Standard GDAE

This is my first tab. I'm not really sure if the tab is right. 
[ Tab from: http://www.guitartabs.cc/tabs/c/carolina_liar/show_me_what_im_looking_for_btab.html ]
Bass comes in around 0:34
G|-----------------------------------------------------------------------|
D|------------3-3-3-3--5-5-5-5-5-5-5-5-------------------5-5-5-5-5-5-5-5-|
A|---5-5-5-5----------------------------5-5-5-5--3-3-3-3-----------------|x2
E|-----------------------------------------------------------------------|

After "Save me from being confused"
G|-----------------|
D|-5-5-5-5-5-5-5-5-|
A|-----------------|x1
E|-----------------|

Let Ring after "Oh Lord..."
G|-----------------------------------------------------------------------|
D|------------3-3-3-3--5-5-5-5-5-5-5-5-------------------5-5-5-5-5-5-5-5~|
A|---5-5-5-5----------------------------5-5-5-5--3-3-3-3-----------------|x1
E|-----------------------------------------------------------------------|

Repeat those parts for the rest of the song
Comments