Carnal Grief - The Hate That Dwells Within Chords & Tabs

 

The Hate That Dwells Within Chords & Tabs

Carnal Grief Chords & Tabs

Version: 2 Type: Tab 0 ratings
1 star 2 stars 3 stars 4 stars 5 stars
comments

The Hate That Dwells Within Tab

#----------------------------------PLEASE NOTE--------------------------------#
#This file is the author's own work and represents their interpretation of the#
#song. You may only use this file for private study, scholarship, or research.#
#-----------------------------------------------------------------------------#

From: "Johan Lindgren" 
Subject: c/carnal_grief/the_hate_that_dwells_within.tab
Date: Sat, 11 Apr 1998 11:08:29 PDT

                    "The Hate That Dwells Within"


              From The Demotape "Embraced By The Light"
                     Performed By Carnal Grief
                      Music By Johan Lindgren
        Transcribed By Johan Lindgren(raggabagga@hotmail.com)

 Intro part 1:
1|-------------------------------|-------------------------------|
2|------0-------3-------0--------|------0-------3-------0--------|
3|----0-----0-------0-------0----|----0-----0-------0-------0----|
4|--4---------4-------4-------4--|--4---------4-------4-------4--|
5|2------------------------------|-------------------------------|
6|-------------------------------|3------------------------------|

1|-------------------------------|------------------------0------|
2|------0-------3-------0--------|------0---------------0---0---0|
3|----0-----0-------0-------0----|----0-----0---3-----3-------3--|
4|--4---------4-------4-------4--|--4---------4------------------|
5|-------------------------------|-------------------------------|
6|0------------------------------|2-----------------2------------|

    Intro part 2: / Outro part 2      2 times
1|---------------|---------------|---------------|--------------0|
2|--------3-----0|--------3-----0|---------------|---------------|
3|--0-------0----|--0-------0----|--0-----0------|--0-----3------|
4|----4----------|----4----------|----4-----4----|----4-----4----|
5|2-----2-----2--|---------------|------------5--|---------------|
6|---------------|3-----3-----3--|0-----0-------7|2-----2-----2--|
 |               |               |               |               |
1|---------------|---------------|---------------|---------------|
2|---------------|---------------|---------------|---------------|
3|---------------|---------------|---------------|---------------|
4|---------------|---------------|---------------|---------------|
5|2--------------|---------------|---------------|---------------|
6|---------------|3--------------|0--------------|2--------------|

    Intro part 3: / Outro part 3      2 times
1|---------------|--------------0|---------------|---------------|
2|--------3-----0|--------3------|--------3-----0|---------------|
3|--0-------0----|--0-------0----|--0-------0----|--0-----3------|
4|----4----------|----4----------|----4----------|----4-----4----|
5|2-----2-----2--|3-----3-----3--|4-----4-----4--|5-----5-----5-4|
6|---------------|---------------|---------------|---------------|
 |               |               |               |               |
1|---------------|---------------|---------------|---------------|
2|---------------|---------------|---------------|---------------|
3|4--------------|5--------------|6--------------|7--------------|
4|---------------|---------------|---------------|---------------|
5|---------------|---------------|---------------|---------------|
6|---------------|---------------|---------------|---------------|

    Intro Part 4:
1|2--------------|3--------------|0--------------|2-----------2--|
2|--3------------|--3------------|--0------------|--2-----2------|
3|----4----------|----4----------|----0----------|----3----------|
4|--4------------|----5----------|----2----------|----4----------|
5|2--------------|--5------------|--2------------|--4-----4------|
6|---------------|3--------------|0--------------|2-----------2--|
 |               |               |               |               |
1|---------------|---------------|---------------|---------------|
2|---------------|---------------|---------------|---------------|
3|4--------------|---------------|---------------|---------------|
4|---------------|5--------------|2--------------|4--------------|
5|---------------|---------------|---------------|---------------|
6|---------------|---------------|---------------|---------------|

 Bridge 1:
1|---------------|---------------|---------------|---------------|
2|---------------|---------------|---------------|---------------|
3|---------------|---------------|---------------|------------4--|
4|--5-4-5---5-4-5|--5-4-5---5/7--|--5-4-5---5-4-5|--5-4-5---5----|
5|2-------2------|---------------|---------------|---------------|
6|---------------|3-------3------|0-------0------|2-------2------|
 |               |               |               |               |
1|---------------|---------------|---------------|---------------|
2|---------------|---------------|---------------|---------------|
3|--4-2-4---4-2-4|--5-4-5---5/7--|--5-4-5---5-4-5|--7-6-7--7/9---|
4|---------------|---------------|---------------|---------------|
5|2-------2------|3-------3------|4-------4------|5------5-------|
6|---------------|---------------|---------------|---------------|

 Bridge 2:
1|---------------------------------------|
2|---------------------------------------|
3|---------------------------------------|
4|---------------------------------------|
5|--10-9------10-9------10-9------10-9---|
6|0------10-0------10-0------10-0--------|
[ Tab from: http://www.guitartabs.cc/tabs/c/carnal_grief/the_hate_that_dwells_within_tab_ver_2.html ]
 Vers:
        ( Guitar 1     4 times )
1|-------------------------------------|
2|-------------------------------------|
3|-------------------------------------|
4|-------------------------------------|
5|--12-10------10-9------9-7-----7-5---|
6|0-------12-0------10-0-----8-0-------|

        ( Guitar 2     Play all 1 time )
1|--------------------------------|--------------------------------|
2|--------------------------------|--------------------------------|
3|--------------------------------|--------------------------------|
4|--10-9------9-7-----7-5-----5-4-|--10-9------9-7-----7-5-----9-7-|
5|-------10-------9-------7-------|-------10-------9-------7-------|
6|0---------0-------0-------0-----|0---------0-------0-------0-----|


1|--------------------------------|--------------------------------|
2|--------------------------------|--------------------------------|
3|--------------------------------|--------------------------------|
4|--10-9------9-7-----7-5-----5-4-|--10-9------9-7-----7-5-----10-9|
5|-------10-------9-------7-------|-------10-------9-------7-------|
6|0---------0-------0-------0-----|0---------0-------0-------0-----|

  Chorus:
1|----------------------------------------------------------------|
2|----------------------------------------------------------------|
3|----------------------------------------------------------------|
4|----------------------------------------------------------------|
5|2-2---2-2---2-2---2-2---2-2---2-2---2-2---2-2---2-2---2-2-------|
6|0-0---1-1---1-1---0-0---1-1---1-1---0-0---1-1---1-1---0-0-------|

1|----------------------------------------------------------------|
2|----------------------------------------------------------------|
3|----------------------------------------------------------------|
4|----------------------------------------------------------------|
5|222---222---222---222---222---222---222---222---222---222-------|
6|000---111---111---000---111---111---000---111---111---000-------|

 Brake:
         (Only played at the last chorus)
1|-------------------------------------------|
2|-------------------------------------------|
3|-------------------------------------------|
4|-------------------------------------------|
5|2-2---2---2---2-2---2---2---2-2---2-2------|
6|0-0---0---0---0-0---0---0---0-0---0-0------|

 Stick:
1|--------------------------------|
2|--------------------------------|
3|----0-----0---------0-----0-----|
4|--4-----4---------4-----4-----4-|
5|2-----3---------2-----1---------|
6|----------------------------3---|

1|--------------------------------|
2|--------------------------------|
3|--------------------------------|
4|--------------------------------|
5|2-----3---------2-----1-----1---|
6|2-----2---------2-----2-----3---|

  Solo:
1|------------------------------------------------------------|
2|------------------------------------------------------------|
3|-------------------7-----------------------------8--7-------|
4|-------------------------8---------------7---7-8------------|
5|-7---9---10-----------7----7/9------9/10---------------8----|
6|------------------------------------------------------------|

1|-10-9----8-7------------------------------------------------|
2|------10-----8----------------------------------------------|
3|---------------------------------7--------------------------|
4|-----------------------9----8-------------------------------|
5|-----------------------------------9/10---------------------|
6|------------------------------------------------------------|

1|------------------------------------------------------------|
2|------------------------8-7---------------------------------|
3|---------------------7--------------------------------------|
4|---------5-7-5--------------9-------------------------------|
5|-7---9-----------------------------10-----9-----5-----------|
6|------------------------------------------------------------|

1|----------------------------------87-----7------------------|
2|------------------------------------8-----------7/8/7-------|
3|-------------------------------------9-8---9----------------|
4|------------------------------------------------------------|
5|-7-9-10-7---5---7----9----10--------------------------------|
6|------------------------------------------------------------|

 Bridge 3:
1|---------------------------------|
2|---------------------------------|
3|---------------------------------|
4|---------------------------------|
5|-2-2-2-3-3-3-3-3-2-2-2-1-1-1-1-1-|
6|-2-2-2-2-2-2-2-2-2-2-2-2-2-2-3-3-|

 Outro Part 1:
1|---------------|---------------|---------------|---------------|
2|---------------|---------------|---------------|---------------|
3|---------------|---------------|---------------|---------------|
4|---------------|---------------|---------------|---------------|
5|2--------------|3--------------|4--------------|5--------------|
6|---------------|3--------------|0--------------|2--------------|

 Outro Part 4:
1|-------------------------------|
2|-------------------------------|
3|-------------------------------|
4|5-------4-------5--------------|
5|2------------------------------|
6|-------------------------------|

Tune Your Guitar Down 5 steps

 1|---e = B
 2|---b = F#
 3|---g = D
 4|---d = A
 5|---a = E
 6|---e = B

How To Play It:

Intro
Bridge 1
Bridge 2
Vers
Chorus
Vers
Chorus
Stick - Solo
Bridge 3
Vers
Chorus
Brake
Chorus (Only The Last Part)
Outro Part 1
Outro Part 2 (Same As Intro Part 2)
Outro Part 3 (Same As Intro Part 3)
Bridge 1
Outro Part 4

Johan Lindgren (raggabagga@hotmail.com)
Comments