Carnal Grief - Reflections Of The Past Chords & Tabs

 

Reflections Of The Past Chords & Tabs

Carnal Grief Chords & Tabs

Version: 1 Type: Tab 0 ratings
1 star 2 stars 3 stars 4 stars 5 stars
comments

Reflections Of The Past Tab

#-----------------------------PLEASE NOTE-------------------------------------#
#This OLGA file is the author's own work and represents their interpretation  #
#of the song. You may only use this file for private study, scholarship, or   #
#research. Remember to view this file in Courier, or some other monospaced    #
#font. See http://www.olga.net/faq/ for more information.                     #
#-----------------------------------------------------------------------------#

From: "Johan Lindgren" 
Subject: c/carnal_grief/reflections_of_the_past.tab
Date: Wed, 23 Sep 1998 01:33:57 PDT


                Reflections Of The Past
               Performed By Carnal Grief
              Words/Music: Johan Lindgren

Intro: 
|-----------------------------------------------------------------| 
|-----------------------------------------------------------------| 
|-----------------------------------------------------------------| 
|-5---------------4---------------3---------------2---------------| 
|-3-----6-----3---2-----5-----2---1---------------0---------------| 
|-------4-----1---------3-----0-----------------------------------| 


Verse: 
|-----------------------------------------------------------------| 
|-----------------------------------------------------------------| 
|-----------------------------------------------------------------| 
|-----------------------3-----------------------------------------| 
|-2-222-2-222-222-4-----1-----3-----3-4---4-5---4---6-5---5-3-2---| 
|-0-000-0-000-000-2-----------1---0-1-2-0-2-3-0-2-3-----2-------4-| 


Refr: 
|-----------------------------------------------------------------| 
|-----------------------------------------------------------------| 
|-----------------------------------------------------------------| 
|-----------------4-----------------------------------------------| 
|-6---------------2---------------333----------3---333------------| 
|-4-------------------------------111----------1---111------------| 
[ Tab from: http://www.guitartabs.cc/tabs/c/carnal_grief/reflections_of_the_past_tab.html ]
|-----------------------------------------------------------------| 
|-----------------------------------------------------------------| 
|-----------------------------------------------------------------| 
|-------------------------3---------------------------------------| 
|-4-----------5-----------1-------222----------2---222------------| 
|-2-----------3-------------------000----------0---000------------| 


Bridge / Ending 
|-----------------------------------------------------------------| 
|-----------------------------------------------------------------| 
|-------------------------5---4-----------------------------------| 
|-------2-----------2-1-----------------2---------------------3---| 
|-------------3-2---------3---2---------------3-2---3-4-2-3-4-1---| 
|-0-------2-----------------------0-------2---------1-2-0-1-2-----| 


Stick Part 1 
|--------------------------------------------------| 
|--------------------------------------------------| 
|--------------------------------------------------| 
|-------------------------------------5-----4------| 
|-7-----------6-----------3--2--------3-----2------| 
|-5-----------4-----------1--0---------------------| 


Stick Part 2 
|---------------------------------------------------| 
|---------------------------------------------------| 
|-------------------------------------5-----4-------| 
|-7-----------6-----------3-------------------------| 
|----------------------------7--------3-----2-------| 
|-5-----------4-----------1--0----------------------| 
|                                                   | 
|---------------------------------------------------| 
|---------------------------------------------------| 
|-5-----------4-----------------------9-----7-------| 
|-------------------------7--6----------------------| 
|-3-----------2-----------------------7-----5-------| 
|-------------------------5--4----------------------| 


Bas Solo 
|-------------------------------------------------| 
|-------------------------------------------------| 
|-----2-3-2-0-2-0---0---------2-3-2-0-2-0---0-----| 
|-0-3-------------3---3-2---3-------------3---3-2-| 
|-------------------------4-----------------------| 

|-------------------------------------------------| 
|-------------------------------------------------| 
|-----2-----2---------------6-5---6-5---4-2-0-----| 
|---3-----3---------------3-----3-----2-------3-2-| 
|-1-----0-----0-----------------------------------| 


Intro : 1 time 
Verse : 2 times 
Intro : 1/2 time 
Verse : 4 times 
Refr : 2 times 
Bridge : 2 times 
Verse : 4 times 
Refr : 2 times 
Stick part 1 : 2 times 
Stick part 2 + Bas Solo : 2 times 
Verse : 4 times 
Refr : 4 times 
Ending (same as Bridge) : 4 times 
Comments