Carnage - There Chords & Tabs

 

There Chords & Tabs

Carnage Chords & Tabs

Version: 2 Type: Bass Tab 0 ratings
1 star 2 stars 3 stars 4 stars 5 stars
comments

There Bass Tab

intro
part 1:
G--4--4-4----6-6-6---|
D-2-22-2---44-4-4----|  X2
A--------------------|
E--------------------|
[ Tab from: http://www.guitartabs.cc/tabs/c/carnage/there_btab_ver_2.html ]
part 2:
G--11-11-11-11--7-7-7-7--11-11-11-11--7-7-7-7-|
D--0--0--0--0---9-9-9-9--9--9--9--9---5-5-5-5-| X4
A---------------------------------------------|
E---------------------------------------------|

Verse
G---------------------------|
D---------------------------|
A-22222-----22222-----55555-|
E------00000-----00000------|

Chorus...part 1 X3

Outro:
G33333-55555-77777-99999--9-9-9-|...Fade
D55555-77777-99999-77777--7-7-7-|...Out
A-------------------------------|
E-------------------------------|
Comments