Carlos Santana - Yaleo Chords & Tabs

 

Yaleo Chords & Tabs

Carlos Santana Chords & Tabs

Version: 1 Type: Tab 0 ratings
1 star 2 stars 3 stars 4 stars 5 stars
comments

Yaleo Tab

   
#-----------------------------PLEASE NOTE-------------------------------------#
#This OLGA file is the author's own work and represents their interpretation  #
#of the song. You may only use this file for private study, scholarship, or   #
#research. Remember to view this file in Courier, or some other monospaced    #
#font. See http://www.olga.net/faq/ for more information.                     #
#-----------------------------------------------------------------------------#

Date: Tue, 8 Aug 2000 23:07:41 -0400
From: jordan L 
Subject: s/santana/yaleo.tab

Song: Yaleo
Artist: Santana 
Album:Supernatural
Transcribed by jordanlockert@yahoo.com

Tablature Explanation:
h=hammer-on
p=pull-off
/=slide up or indicates rapid picking
\=slide down
b=bend 1 semitone
^=bend 2 semitones
^^=bend 4 semitones (used once)
br, ^r=bend &release
Jam key= E minor

There's a few seconds missing from the introduction because my tape got 
dubbed wrong, but just use the notes shown to figure it out. its just a 
bit missing. The licks wouldve been easier to figure out without the wah                                         pedal but oh well, I know i got the solo just perfect


Intro
|-----------------------------10----------------10-------10-12p10h12-----|
|-----------------------10h12----10-------10h12----10-12-----------------|
|------------------------------------------------------------------------|
|------------------------------------------------------------------------|
|------------------------------------------------------------------------|
|------------------------------------------------------------------------|

 

...en Paris
|-------------|
|-------------|
|------7h9----|
|-7h9---------|
|-------------|
|-------------|


                                                                              
..de mi
|---------------|
|-----8-7-------|
|---9-----7-9---|
|-9-------------|
|---------------|
|---------------|


                                                                              
Yaleo
|-----------------7--------------|
|---------------8---8---10-8-----|
|-----------7-9-------9------9---|
|-------7-9----------------------|
|-7--10--------------------------|
|--------------------------------|


                                                                              
...el isc
|---------------|
|-10^-10-8------|
|----------7-7--|
|---------------|
|---------------|
|---------------|


                                                                              
...partiendo pan
|--------------------------|
|---------8-10^-10^--8h10--|
|-----7-9------------------|
|-7h9----------------------|
|--------------------------|
|--------------------------|


                                                                              
...dame ya
|-------10------|
|-10h12----10---|
|---------------|
|---------------|
|---------------|
|---------------|


                                                                              
Yaleo
|-7-10-7-10-7-10-7-10-7-10-7-10-7\-----|
|--h--p-h--p-h--p-h--p-h--p-h--p-------|
|--------------------------------------|
|--------------------------------------|
|--------------------------------------|
|--------------------------------------|


                                                                              
Yaleo, Yaleo
|----------------------------------------------------------------------------
|-----------------------------10^-10p8---------------------------------------
|-12wah12wah12wah12wah12wah-----------9----12wah12wah12wah12wah12wah---------
|----------------------------------------------------------------------------
|--************************-----------------***********************----------
|----------------------------------------------------------------------------
*I stop putting this filler with the wah pedal in and just write the licks now                                                                           


--------------------------------------------15^---r-12///-15p12---------------
-15^----15p12-----------------------------------------------------------------
-------------14^r12--14p12--------------------------------------14^-14p12-----
-------------------14-----14---------------------------------------------14---
------------------------------------------------------------------------------
------------------------------------------------------------------------------
                                                                              


------------15p12------------|
--15^//15^//-----15^//-------|
-----------------------------|
-----------------------------|
-----------------------------|
-----------------------------|
                                                                              


...wa yo
|----------------------------------------------------------------------------
|------------12--------------------------10^--8h10--8h10p8-------------------
|--------------14p12--14p12-------------------------------9------------------
|-------------------14-----14------------------------------------------------
|----------------------------------------------------------------------------
|----------------------------------------------------------------------------
                                                                              


--12-12--12-12-----------------------------------------------------|
--12-12--12-12------------------15^--15p12-------------------------|
--12-12--12-12----------------------------14^r12--14p12------------|
------------------------------------------------14-----14-----12---|
---------------------------------------------------------12h14-----|
-------------------------------------------------------------------|

                                                                              

|------------------------------------|
|------------------------------------|
|---------------------7h9p7h9p7h9p7--|
|-----------------7h9----------------|
|----------7---10--------------------|
|-7---10-----------------------------|
this is during the quiet part                                                                              


Yaleo Yaleo
|----------------------------------------------------------------------------
|----------------------------------------------------------------------------
|-12wah12wah12wah12wah12wah-----14^r12--12-----------------------------------
|-------------------------------------14--14---------------------------------
|----------------------------------------------------------------------------
|----------------------------------------------------------------------------
                                                                              


--------------------------------------------
-------15^----15p12-------------------------
-------------------14^r12--14p12------------
-------------------------14-----14----------
--------------------------------------------
--------------------------------------------
                                                                              


-15^^-r-12h15p12-12-12-12-12-12-12-12-12-12-15p12-12------12------------------
-----------------------------------------------------15^----15p12-------------
-----------------------------------------------------------------14^r12\------
------------------------------------------------------------------------------
------------------------------------------------------------------------------
------------------------------------------------------------------------------


                                                                              
...wa yo
|-------------------------------------------------9b--9----7-----------------
|-------------------------------------------------------10-------------------
|----------------14^-14p12--14p12--------------------------------------------
|-------------------------14-----14------------------------------------------
|----------------------------------------------------------------------------
|----------------------------------------------------------------------------
                                                                              


------------------------------------------------------------------------------
-------12------------------------15^////--------------------------------------
---------14p12--14p12--------------------12-12wah-----------------------------
--------------14-----14-------------------------------------------------------
------------------------------------------------------------------------------
------------------------------------------------------------------------------
                                                                              
Ive got about a third of the piano solo worked out, ill post it later.
[ Tab from: http://www.guitartabs.cc/tabs/c/carlos_santana/yaleo_tab.html ]
guitar solo
|----------------------------------------------------------------------------
|-12-----------------------------------------15-12h15p12---------------------
|----------------12-----------------------14---------------------------------
|-------------------14-12-14-12--------15------------------------------------
|----------------------------------------------------------------------------
|----------------------------------------------------------------------------
                                                                              


------------------------------------------------------------------------------
-13-12-------------------------------12----12--------13-12--------------------
-------12-------------------------------14-----------------12-----------------
----------14-12h14p12--12---------14--------------------------14-12-----------
---------------------15-------------------------------------------------------
------------------------------------------------------------------------------
                                                                              


-------------------------------12--------15////////////14p12-15///14p12-------
-------------12-12-13///-15///------------------------------------------------
-------12-14------------------------------------------------------------------
-14-15------------------------------------------------------------------------
------------------------------------------------------------------------------
------------------------------------------------------------------------------

                                                                              

-15p14p12-15p14p12-15p14p12---------------------------------------------------
------------------------------------------------------------------------------
------------------------------------------------------------------------------
------------------------------------------------------------------------------
------------------------------12^12^---/////12-10-12^r10-12p10--14------------
--------------------------------------------------------------12--------------
                                                                              


-20^-------/-15-20^20^--15-20^20^--15-20^20^--15-20^20^--15-20^20^--15-20^20^-
------------------------------------------------------------------------------
------------------------------------------------------------------------------
------------------------------------------------------------------------------
------------------------------------------------------------------------------
------------------------------------------------------------------------------
                                                                              


-15-20^20^--15-20^-15-20^-20^-20^///----|
----------------------------------------|
----------------------------------------|
----------------------------------------|
----------------------------------------|
----------------------------------------|
                                                                              


|-22^22^22^22^------22^22^22^22^------22^22^22^22^------22^22^22^22^---------
|----------------------------------------------------------------------------
|----------------------------------------------------------------------------
|----------------------------------------------------------------------------
|----------------------------------------------------------------------------
|----------------------------------------------------------------------------
                                                                              


-22^22^22^-22-^22^22^-22-^22^22^-repeat---------------------------------------
------------------------------------------------------------------------------
------------------------------------------------------------------------------
------------------------------------------------------------------------------
------------------------------------------------------------------------------
------------------------------------------------------------------------------
                                                                              


|-24^*////////////////////////-------------|
|------------------------------------------|
|------------------------------------------|
|------------------------------------------|
|------------------------------------------|
|-*=3semitones-----------------------------|


                                                                              
Yaleo
Yaleo
Yaleo
Yaleo
|--------------------------------------------------------12------------------
|-15^---15p12---------------------------------------12h15--------------------
|------------14^-14p12-------------12----14p12--------------14p12------------
|---------------------14---x-x-x-x----14------14-----------------14----------
|----------------------------------------------------------------------------
|----------------------------------------------------------------------------
                                                                              


---------------------17^r--15-17^--15---------------------------15------------
-------------------------------------17-17-17-17-17-17-17-17-17---------------
-x-x-x-x-12-------------------------------------------------------------------
------------14----------------------------------------------------------------
------------------------------------------------------------------------------
------------------------------------------------------------------------------
                                                                              


------12------------------------------------12-----12-------------------------
--------15p12--------------------------12h15--12h15--15p12--------------------
-------------14p12--14p12-------12------------------------14p12\--------------
------------------14-----14-------14------------------------------------------
------------------------------------------------------------------------------
------------------------------------------------------------------------------
                                                                              


|----------------------------------------------------17-----17------20^--------
|-10b15------r10-r10-r10-r10-r10----------------17h19--20p17--20p17------------
|------------------------------------------------------------------------------
|------------------------------------------------------------------------------
|------------------------------------------------------------------------------
|------------------------------------------------------------------------------
                                                                              


--------------------------------------------------------22-19-22-19-22-19-22--
-14br-12-----------------------17///19///20///------22^---p--h--p--h--p--h----
---------14p12h14^-14p12------------------------------------------------------
------------------------14--------------------19///---------------------------
------------------------------------------------------------------------------
------------------------------------------------------------------------------
                                                                              


-22^-22^-22^-22^-22^-----------12///---12///----------------------------------
----------------------------15^-----15^-----------14br-12---------------------
----------------------------------------------------------14p12---------------
---------------------------------------------------------------14-------------
------------------------------------------------------------------------------
------------------------------------------------------------------------------
                                                                              


-12-----------------------------------------------------------------------12--
------15p12---------------------------------------------------------------12--
-----------14^r12--14p12----------------------------12///14^-14p12--12h14^----
-----------------14-----14----------------------------------------14----------
--------------------------------12-9-12-9-12-9-12-9---------------------------
----------------------------------p-h--p-h--p-h--p----------------------------
                                                                              


------------------------------------------22-19-22-19-22-19-22-19-22-
-15^//////15^//////-------------------22^---p--h--p--h--p--h--p--h---
---------------------------------------------------------------------
--------------------14///16///17///19--------------------------------
---------------------------------------------------------------------
---------------------------------------------------------------------
                                                                              


-19////--------------------12----12-------------------------------------------
--------20--------15^--------15^---15p12--------------------------------------
----------------------------------------14p12--14p12--12h14^--/-/-/r-r-14^----
---------------------------------------------14-----14------------------------
------------------------------------------------------------------------------
------------------------------------------------------------------------------
                                                                              


-------------------|
-------------------|
-r-r-r14p12--------|
-----------14------|
-------------------|
-------------------|
                                                                              

 

Comments