Carlos Santana - Why Dont You And I Chords & Tabs

 

Why Dont You And I Chords & Tabs

Carlos Santana Chords & Tabs

Version: 4 Type: Tab 0 ratings
1 star 2 stars 3 stars 4 stars 5 stars
comments

Why Dont You And I Tab

   
-------------------------------------------------------------------------------
			    WHY DON'T YOU & I - Carlos Santana
-------------------------------------------------------------------------------

Tabbed by:Cheetah at Night
Email:Darkgriffen@cs.com

Tuning:Standard
[ Tab from: http://www.guitartabs.cc/tabs/c/carlos_santana/why_dont_you_and_i_tab_ver_4.html ]
e|---------------------------------------------------------------------------|
B|---------------------------------------------------------------------------|
G|--17-19-17-15-15-14-15-17-15-14-14h15p14----------15-------------14-15-----|
D|-----------------------------------------17-15-17----15-17-17-19-----------|
A|---------------------------------------------------------------------------|
E|---------------------------------------------------------------------------|

e|---------------------------------------------------------------------------|
B|----------------16----15-15-16-18-16-15h16p15------------------------------|
G|-15/17-15-17/19----19-------------------------17b-15-----------------------|
D|---------------------------------------------------------------------------|
A|---------------------------------------------------------------------------|
E|---------------------------------------------------------------------------|

This is the proper way to play it

| /  slide up
| \  slide down
| h  hammer-on
| p  pull-off
| ~  vibrato
| +  harmonic
| x  Mute note
| b  Bend up
===============================================================================
Comments