Carlos Santana - Why Dont You And I Chords & Tabs

 

Why Dont You And I Chords & Tabs

Carlos Santana Chords & Tabs

Version: 1 Type: Bass Tab 0 ratings
1 star 2 stars 3 stars 4 stars 5 stars
comments

Why Dont You And I Bass Tab

Why dont you and I
Santana feat. Chad Kroeger

standard tuning: EADG
tabbed by: Mark Anthony Gruspe
email: mgruspe@peoplesupport.com
       kramy_xxiii@yahoo.com

intro:

G|--------------------------------------|
D|--------------------------------------|
A|-----5--------------5--6-66-5-55------|
E|--3------3-3/-10--3---------------10\-|

verse

G|---------------------------------------|
D|---------------------------------------|
A|--------------------6--6---------------|
E|--6---0-1---0-1-4-------8--------------|


G|---------------------------------------|
D|---------------------------------------|
A|--------------------6--66\-------------|
E|--6---0-1---0-1-4----------------------|

(repeat verse)

refrain:

G|--------------------------------------|
D|-------10----8------------13----------|
A|----10----10---10-------13--13---889--|
E|--8---------------8--11-------11------|


chorus:

G|---------------------------------------|
D|---------------------------------------|
A|-----------------/8-8-8-88-------------|
E|-16\----8-8-\-1-1---------10-----------|
[ Tab from: http://www.guitartabs.cc/tabs/c/carlos_santana/why_dont_you_and_i_btab.html ]
G|---------------------------------------|
D|---------------------------------------|
A|------------/8-8-8-88------------------|
E|---8-8-\-1-1---------10----------------|

interlude:

G|---------------------------------------|
D|---------------------------------------|
A|-----5---------------5--6-66-5-55------|
E|--3------3-3/-10--3---------------10\--|

verse2:

G|---------------------------------------|
D|---------------------------------------|
A|--------------------6--6---------------|
E|--6---0-1---0-1-4-------8--------------|


G|---------------------------------------|
D|---------------------------------------|
A|--------------------6--66\-------------|
E|--6---0-1---0-1-4----------------------|

*repeat chorus(2x)*

*repeat refrain*

G|----------------------------------------|
D|-------10----8-----10-11-13-------------|
A|----10----10---10----------13---8-89----|
E|--8--------------------------11---------|

*repeat chorus til end*

*please dont copy and post this tab as yours. have some respect*
if u have comments or suggestions just email me kramy_xxiii@yahoo.com

*wag nio pong kopyahin tpos i-post it0ng tab n i2 n kunwari kyo ang gumawa*
if u have comments or suggestions just email me kramy_xxiii@yahoo.com

add me on your friendster- kramy_xxiii@yahoo.com =p
*please rate it. thanx.*
Comments