Carlos Santana - Well All Right Chords & Tabs

 

Well All Right Chords & Tabs

Carlos Santana Chords & Tabs

Version: 1 Type: Bass Tab 0 ratings
1 star 2 stars 3 stars 4 stars 5 stars
comments

Well All Right Bass Tab

   
Well All Right.btab
Santana
TablEdited by Poppamies
Tuning : E A D G 	Time Signature: 4/4

 tempo 110       |       |        |       |       |       |        
|--------------------------------|--------------------------------|
|--------------------------------|--------------------------------|
|5/----2-------------------------|----5-----5-----5---------------|
|--------------------------------|--------------------------------|

 |       |       |       |        |       |       |       |        
|--------------------------------|--------------------------------|
|--------------------------------|--------------------------------|
|5/----2-------------------------|----5-----5-----5---------------|
|--------------------------------|--------------------------------|

 |       |       |       |        |       |       |       |        
|--------------------------------|--------------------------------|
|--------------------------------|--------------------------------|
|5/----2-------------------------|----5-----5-----5/----2---------|
|--------------------------------|--------------------------------|

 |       |       |       |        |       |       |       |        
|--------------------------------|--------------------------------|
|--------------------------------|----------------0-------7/----3-|
|5/----2-------------------------|----0-----3---------------------|
|--------------------------------|--------------------------------|

 |       |       |       |        |       |       |       |        
|------2-2-----------------------|--------------------------------|
|0---------------------2-2---0---|0-----------0---0-------0-------|
|------------3---3---------------|------0-0-------------0-----0---|
|--------------------------------|--------------------------------|

 |       |       |       |        |       |       |       |        
|--------------------------------|------------------------7-------|
|0---------------------2-2---0---|0-----------0---0-----7-----7---|
|------2-2---0---0---------------|------0-0-----------------------|
|--------------------------------|--------------------------------|

 |       |       |       |        |       |       |       |        
|--------------------------------|--------------------------------|
|0---------------------2-2---0---|0-----------0---0-------0-------|
|------0-0---3---3---------------|------0-0-------------0-----0---|
|--------------------------------|--------------------------------|

 |       |       |       |        |       |       |       |        
|--------------------------------|--------------------------------|
|0---------------------2-2---0---|0-----------0---0-0-2---3---4---|
|------2-2---0---0---------------|------0-0-----------------------|
|--------------------------------|--------------------------------|
[ Tab from: http://www.guitartabs.cc/tabs/c/carlos_santana/well_all_right_btab.html ]
 |       |       |       |        |       |       |       |        
|0-----------------------0---1---|2-----------------------2-------|
|------0-0-------------0---------|------2-2-------------2-----2---|
|--------------------------------|------------0---0---------------|
|------------3---3---------------|--------------------------------|

 |       |       |       |        |       |       |       |        
|--------------------------------|--------------------------------|
|0-----0-------------------------|0-----------0---0-0-2---3---4---|
|--------0---2---3-----3-2---0---|------0-0-----------------------|
|--------------------------------|--------------------------------|

 |       |       |       |        |       |       |       |        
|0-----------------------0---1---|2-------------------0---2-0-----|
|------0-0-------------0---------|------2-2---------2---2-----2---|
|--------------------------------|------------0-------------------|
|------------3---3---------------|--------------------------------|

 |       |       |       |        |       |       |       |        
|--------------------------------|--------------------------------|
|0-----0-------------------------|0-----------0---0-----------2---|
|--------0---2---3-----3-2---0---|------0-0-------------0-3-------|
|--------------------------------|--------------------------------|

 |       |       |       |        |       |       |       |        
|--------------------------------|--------------------------------|
|0-----0-------------------------|0-----------0---0-----------2---|
|--------0---2---3-----3-2---0---|------0-0-------------0-3-------|
|--------------------------------|--------------------------------|

 |       |       |       |        |       |       |       |        
|--------------------------------|--------------------------------|
|0-----0-------------------------|0-----------0---0-----------2---|
|--------0---2---3-----3-2---0---|------0-0-------------0-2-------|
|--------------------------------|--------------------------------|

 |       |       |       |        |       |       |       |        
|--------------------------------|--------------------------------|
|--------------------------------|----------------0-------7/----3-|
|5/----2-------------------------|--------------------------------|
|--------------------------------|--------------------------------|

 |       |       |       |        |       |       |       |        
|--------------------------------|--------------------------------|
|0---------------------2-2---0---|0-----------0---0-------0-------|
|------0-0---3---3---------------|------0-0-------------0-----0---|
|--------------------------------|--------------------------------|

 |       |       |       |        |       |       |       |        
|--------------------------------|--------------------------------|
|0---------------------2-2---0---|0-----------0---0-------0-------|
|------2-2---0---0---------------|------0-0-------------0-----0---|
|--------------------------------|-------and so on maby...  ------|

Transcribe! 6.0 transcription http://www.seventhstring.demon.co.uk/
Created with TablEdit http://www.tabledit.com/
http://www.geocities.com/jani_bjorklund/janis.html
Comments