Carlos Santana - Victory Is Won Chords & Tabs

 

Victory Is Won Chords & Tabs

Carlos Santana Chords & Tabs

Version: 3 Type: Tab 0 ratings
1 star 2 stars 3 stars 4 stars 5 stars
comments

Victory Is Won Tab

"Victory is won"
by: Carlos Santana
Tabbed by: MISTAHFRANCO


|-----5-5-7-5h7--5h7-5-------|            ----|
|-7-7------------------5-7-7-|                | 
|----------------------------|[Repeat 2X]     |
|----------------------------|                |
|----------------------------|                | [REPEAT TWICE]
|----------------------------|                |
                                              |
|-5h7-5----------------------|                |
|---------7-5--5h7-5---------|                |
|-------7------------4-7-7---|                | 
|----------------------------|                |
|----------------------------|                |
|----------------------------|            ----| 
[ Tab from: http://www.guitartabs.cc/tabs/c/carlos_santana/victory_is_won_tab_ver_3.html ]
|------11-9-9----6---5h7-5------|
|-9h11--------11----------5-7-7-| 
|-------------------------------|
|-------------------------------|
|-------------------------------|
|-------------------------------|

|------11-9-9---6-9-8-7-6h7r6--br-----------------12-13b-|
|-9h11--------11-------------------12-12-12-14-15--------|
|--------------------------------------------------------|
|--------------------------------------------------------|
|--------------------------------------------------------|
|--------------------------------------------------------|

|-5h7-5----------------------|
|---------7-5---5h7-5--------| 
|-------7-------------4-7-7--|
|----------------------------|
|----------------------------|
|----------------------------|

I hope that this comes close, because it sounds ok to me.
Any questions, comments, or advice email me @ mistahfranco@yahoo.com.  
PEACE OUTSIDE!!!!
Comments