Carlos Santana - Since Supernatural Chords & Tabs

 

Since Supernatural Chords & Tabs

Carlos Santana Chords & Tabs

Version: 1 Type: Tab 0 ratings
1 star 2 stars 3 stars 4 stars 5 stars
comments

Since Supernatural Tab

---------------------------------------------------------------------
 		     Since Supernatural-Shaman

Produced by Wyclef Jean & Jerry "Wonder" Duplessis
Vocals: Melkey Jean & Governor Washington
Lead guitar: Santana, of course =P

---------------------------------------------------------------------

Tabbed by: Stephen Dadaian

Legend:
--------------------------
_/  = Gradual bend (half)|
^^ = bend whole step     |
^ = bend half step       |
h =  hammer on           |
~ = vibrato            |
p = pull-off             |
pm = palm mute           |
--------------------------

Intro:
[0:00 -> 0:17]                                (2nd half of intro)
e|--------15-----------------------------------------------------8--|
B|--16_/------15~--13--16--11~--9--13--7h8~--9--8--6----------8-----|
G|----------------------------------------------------8---10b-------|
D|------------------------------------------------------------------|
A|------------------------------------------------------------------|
E|------------------------------------------------------------------|

                (play each of these a couple times)
e|-8--11---8-----8---10---11---13----------------------------------|
B|-----------------------------------------------------------------|
G|---------------5----7----8---10----------------------------------|
D|-----------------------------------------------------------------|
A|-----------------------------------------------------------------|
E|-----------------------------------------------------------------|
     [0:26]        [0:33]
e|-----------------------------------------------------------------|
B|-----------------------------15----------------------------------|
G|-----12~~---------12----15-------17---17~------------------------|
D|-----------------------------------------------------------------|
A|-----------------------------------------------------------------|
E|-----------------------------------------------------------------|
[ Tab from: http://www.guitartabs.cc/tabs/c/carlos_santana/since_supernatural_tab.html ]
   [1:12-->1:42] Repeat the beginning
e|-----------------------------------------------------------------|
B|-----------------------------------------------------------------|
G|-----------------------------------------------------------------|
D|-----------------------------------------------------------------|
A|-----------------------------------------------------------------|
E|-----------------------------------------------------------------|

    [2:19]Play the intro once more!
e|-----------------------------------------------------------------|
B|-----------------------------------------------------------------|
G|-----------------------------------------------------------------|
D|-----------------------------------------------------------------|
A|-----------------------------------------------------------------|
E|-----------------------------------------------------------------|

[2:54] (guitar solo) Hey yo Carlos, make that guitar cry!(then play the 2nd
half of the intro)

e|-----------------------------------------------------------------|
B|------------15-----------18b--15~---13--16--11--9--13--7h8~------|
G|---12---15------17--17~------------------------------------------|
D|-----------------------------------------------------------------|
A|-----------------------------------------------------------------|
E|-----------------------------------------------------------------|
  
Rif 2:[3:15] (play this riff twice)

e|---15~--15---18---15-----------15~-------------------------------|
B|----------------------15---18------------------------------------|
G|-----------------------------------------------------------------|
D|-----------------------------------------------------------------|
A|-----------------------------------------------------------------|
E|-----------------------------------------------------------------|

[3:38] C'mon won't ya please play the guitar for me? (play Riff 2 3x but on the
4th time...                   (ad lib Gm Penta;15th fet)

e|---------------15--15--18b--18b--18b-----------------------------|
B|---15-----18-----------------------------------------------------|
G|-----------------------------------------------------------------|
D|-----------------------------------------------------------------|
A|-----------------------------------------------------------------|
E|-----------------------------------------------------------------|

Any comments/suggestions:
Tequilla503@AOL.com
=====================================================================
Comments