Carlos Santana - Shes Not There Chords & Tabs

 

Shes Not There Chords & Tabs

Carlos Santana Chords & Tabs

Version: 1 Type: Tab 0 ratings
1 star 2 stars 3 stars 4 stars 5 stars
comments

Shes Not There Tab

   
#-----------------------------PLEASE NOTE-------------------------------------#
#This OLGA file is the author's own work and represents their interpretation  #
#of the song. You may only use this file for private study, scholarship, or   #
#research. Remember to view this file in Courier, or some other monospaced    #
#font. See http://www.olga.net/faq/ for more information.                     #
#-----------------------------------------------------------------------------#

Date: Wed, 13 Sep 2000 15:55:26 -0400
From: jordan L 
Subject: s/santana/shes_not_there.tab

Song: She's Not There
Artist: Santana
Album: Best of Santana
Transcribed by jordanlockert@yahoo.com

Tablature Explanation:
h=hammer-on
p=pull-off
/=slide up or indicates rapid picking
\=slide down
b=bend 
^=bend full
br, ^r=bend &release

Intro. not sure what instrument this is
|----------------------------------------------------|
|-----3----------------------------3--------3--------|
|---3---5------------------------3---5---------------|
|-5----------------3-5---------5----------------3-5--|
|----------------5----------------------------5------|
|----------------------------------------------------|
                                                                              

Guitar
|--------------------------------|
|--------------------------------|
|--------------------------------|
|--8-10^-r-^-r-^--10^-10^--8-----|
|--------------------------------|
|-(0:58)-------------------------|
                                                                              


|--------------|
|--------------|
|--------3-----|
|------3---5---|
|--3h5---------|
|-(1:03)-------|
                                                                              


|------------------------|
|-13^-----11-13^-11\-----|
|------------------------|
|------------------------|
|------------------------|
|-(1:06)-----------------|
                                                                              


|---------------------|
|-------------11------|
|-------10h12----12---|
|-10h12---------------|
|---------------------|
|-(1:10)--------------|
                                                                              


|-13--------13------------------|
|-13^-------13--11--13^-11h13---|
|-------------------------------|
|-------------------------------|
|-------------------------------|
|-(1:13)------------------------|



|--------------------|
|--------------------|
|----------3h5-3-----|
|-3h5-55-------------|
|--------------------|
|-(1:13)-------------|
                                                                              


|--13----13----13------------|
|--13^---13^---13^---11------|
|----------------------12----|
|----------------------------|
|----------------------------|
|-(1:21)---------------------|
                                                                              


|--------------------------------------------15^---|
|-13^----13^----13^----13^----13^----13^-----------|
|--------------------------------------------------|
|--------------------------------------------------|
|--------------------------------------------------|
|-(1:25)-------------------------------------------|
                                                                              


|------------|
|------------|
|------------|
|-555-3-5----|
|------------|
|-(1:30)-----|
                                                                              
[ Tab from: http://www.guitartabs.cc/tabs/c/carlos_santana/shes_not_there_tab.html ]
solo:
|-----------------------------------------------------------|
|-18-------18--18--18---------------------------------------|
|-17^------17^-17^-17^-----15---------15-17-17^-15--17\-----|
|----------------------------17-----------------------------|
|-----------------------------------------------------------|
|-(1:41)----------------------------------------------------|
                                                                              


|-18^-----18^--18^--18^--18^-18^r--15----15-----15-------------------------
|-------------------------------------18----18^----18p15-------------------
|--------------------------------------------------------17p15----15h17^---
|--------------------------------------------------------------17----------
|--------------------------------------------------------------------------
|-(1:47)-------------------------------------------------------------------
                                                                              


-----------------------------------13-------13-------13-------13-----13----13-
-15---18p15------------------------15-------15-------15-------15-----15----15-
------------17^---17p15----15h17^------17^------17^------17^------17^---17^---
------------------------17----------------------------------------------------
------------------------------------------------------------------------------
------------------------------------------------------------------------------
                                                                              


----13----13----13----13-----------------------------|
----15----15----15----15-18--18--18------------------|
-17^---17^---17^---17^---17^-17^-17^--17-15h17-15----|
-----------------------------------------------------|
-----------------------------------------------------|
-----------------------------------------------------|

                                                                              

|-18p15----15-18p15----15-18p15----15-18^-----18^--18-15-----|
|-------18----------18----------18---------------------------|
|------------------------------------------------------------|
|------------------------------------------------------------|
|------------------------------------------------------------|
|-(1:59)-----------------------------------------------------|

                                                                              

|-15p13--------13------------------------------------------------------------
|------15-13h15---13--13-15--------------------------------------------------
|-------------------15-----15-15-17^--17^--17^--17^--17^--17^--17^--17^--17^-
|-------------------------------------**************************************-
|-------------------------------------gradually make bends higher then lower-
|-(2:02)-----------------------------------listen to the song to get it------
                                                                              


------------------------------------------------15----------------------
---------------------------------------------------18p15----------------
--15-17-17--15-17-17--15-17-17--15-17-17-15-17^----------17--15-15-17---
------------------------------------------------------------------------
------------------------------------------------------------------------
-(2:08)-----------------------------------------------------------------

                                                                              

-----------------------|
-----------------------|
-15--15h17-15h17-15----|
-----------------------|
-----------------------|
-----------------------|

I didn't really like the way the song changes after this
so i didnt do it but it's Gm pentatonic
Comments