Carlos Santana - Samba De Sausalito Chords & Tabs

 

Samba De Sausalito Chords & Tabs

Carlos Santana Chords & Tabs

Version: 1 Type: Tab 0 ratings
1 star 2 stars 3 stars 4 stars 5 stars
comments

Samba De Sausalito Tab

Song Title: Samba de Sausalito
Artist/Band: Santana
Album: Welcome(1973),Lotus(1975)

Tab by JC Rea(jcrp_21@hotmail.com)


Guitar 1(this is for Welcome album version):
e|---------------------------------------|
B|---------------------------------------|
G|---------------------------------------|
D|-5--5-8-7---5---5-8-7---5---3-3---3-5--|
A|----------8-----------8---------5------|
E|---------------------------------------|

e|-----------------------------------------------------------|
B|-----------------------------------------------------------|
G|-----------------------------------------------------------|
D|-5--5-8-7---5---5-8-7--5--10-8--7-5---7-5-3-2--------------|
A|----------8-------------------------8---------5---3-3-1-3--|
E|-----------------------------------------------------------|
[ Tab from: http://www.guitartabs.cc/tabs/c/carlos_santana/samba_de_sausalito_tab.html ]
Guitar 2(this is for Lotus album live version):
e|-3--3-6-5---3---3-6-5---3---1-1---1-3--|
B|----------6-----------6---------3------|
G|---------------------------------------|
D|---------------------------------------|
A|---------------------------------------|
E|---------------------------------------|

e|-3--3-6-5---3---3-6-5--3--8-6-5-----5------------------|
B|----------6---------------------8-6---8-6-5-3----------|
G|----------------------------------------------5-5-3-5--|
D|-------------------------------------------------------|
A|-------------------------------------------------------|
E|-------------------------------------------------------|

In both versions, the song ends with:
e|-3-3-3-3---3---3-3--|
B|-3-3-3-3---3---5-5--|
G|-3-3-3-3---3---5-5--|
D|-5-5-5-5---5---5-5--|
A|-5-5-5-5---5---3-3--|
E|-3-3-3-3---3--------|


That's all for the simplest Santana's song I've heard.

Comments:jcrp_21@hotmail.com
Comments