Carlos Santana - Maria Maria Chords & Tabs

 

Maria Maria Chords & Tabs

Carlos Santana Chords & Tabs

Version: 2 Type: Bass Tab 0 ratings
1 star 2 stars 3 stars 4 stars 5 stars
comments

Maria Maria Bass Tab

   
Maria, Maria
Santana
E, A, D, G

Intro:
Play 4 times.

Fig. 1
G ---------------------|---------------
D ---------------------|---------------
A ----0-----0----0-----|-0-----0----0--
E -------0---0------0-|----0----0-----

Fig. 2
G --------------------|--------------------|------------------
D --------------------|--------------------|------------------
A -5-----5----5-------|----5------5-----5-|0-----0----0-----
E ----5---5---------5|---------5----5-----|-----0----0------0

G --------------------|--------------------|------------------
D ------2----2--------|-2-----2----2-------|------------------
A ----2---2--------2--|-----2---2---------|-0----0---0------
E 0------------------|--------------------|-----0---0-------0

G --------------------|--------------------|------------------
D --------------------|--------------------|------------------
A 0-----0----0-------|--5----5---5-------|-5-----5---5-----
E ----0---0----------|-----5---5-------5--|------5---5-------

G --------------------|--------------------|------------------
D --------------------|--------------------|-------2----2-----
A 0-----0----0-------|-0-----0---0-------|----2---2-------2
E ----0---0--------0-|-----0---0----------|-0----------------

G ---------------------|
D ---------------------|
A -2-------------------|
E ---------------------|

Play 1 time.
Fig. 1
G ---------------------|-----------------|----------------|
D ---------------------|-----------------|----------------|
A ----0-----0----0-----|-0-----0----0----|-0----0---0-----|
E -------0---0------0-|----0----0-------|----0---0-----0-|

Fig. 3
Repeat 2 times.
G --------------------|--------------------|---------------
D --------------------|--------------------|---------------
A 0-----0---0--------|------5---5--------|-----3---3-----
E ----0---0----------|-3------3---3-------|-1-----1---1---

G --------------------|
D --------------------|
A --5---5-----------|
E 3----3---4-------0-|

Fig. 1
Play 3 times.
G ---------------------|-----------------|
D ---------------------|-----------------|
A ----0-----0----0-----|-0-----0----0----|
E -------0---0------0-|----0----0-------|Fig. 2
G --------------------|--------------------|------------------|
D --------------------|--------------------|------------------|
A -5-----5----5-------|----5------5-----5-|0----0----0------|
E ----5---5---------5|---------5----5-----|----0----0------0-|G --------------------|--------------------|------------------|
D ------2----2--------|-2-----2----2-------|------------------|
A ----2---2--------2--|-----2---2---------|0----0---0-------|
E 0------------------|--------------------|----0---0-------0-|G --------------------|--------------------|-----------------
D --------------------|--------------------|-----------------
A 0-----0----0-------|--5----5---5-------|-5-----5---5----
E ----0---0----------|-----5---5-------5--|------5---5------

G --------------------|--------------------|------------------
D --------------------|--------------------|-------2----2-----
A 0-----0----0-------|-0-----0---0-------|----2---2-------2
E ----0---0--------0-|-----0---0----------|-0----------------
[ Tab from: http://www.guitartabs.cc/tabs/c/carlos_santana/maria_maria_btab_ver_2.html ]
G ---------------------|
D ---------------------|
A -2-------------------|
E ---------------------|

Fig. 1
Play 3 times.
G ---------------------|---------------
D ---------------------|---------------
A ----0-----0----0-----|-0-----0----0--
E -------0---0------0-|----0----0-----

Verse 2

G --------------------|--------------------|---------------
D -------REST---------|--------------------|---------------
A -------------------|-0-----0---0-------|-----5---5-----
E -------------------|-----0---0----------|-3-----3---5---

G --------------------|--------------------|---------------
D --------------------|--------------------|---------------
A ----3---3----------|-2-----2---2--------|-0-----0---0---
E 1-----1---1--------|-----2---2--------4-|-----0---0-----

G ---------------------|
D ---------------------|
A ---------------------|
E -3-------------------|

G ---------------------|------------------|
D ---------------------|------------------|
A ---------------------|-2-----2---2------|
E -1-------------------|-----2---2------0-|

Fig. 1
Play 5 times.
G ---------------------|-----------------|
D ---------------------|-----------------|
A ----0-----0----0-----|-0-----0----0----|
E -------0---0------0-|----0----0-------|

Verse 3:
G ---------------------|-----------------|-------------
D ---------------------|-----------------|-------------
A -0---0---0-----------|----5---5--------|----3---3----
E -0---0-------------|-3----3---3------|-1----1---1--

G ---------------------|-----------------|-------------
D -2-----2---2---------|-----------------|-------------
A ----2---2-----------|-0-----0---0-----|-----5---5---
E ------------------0-|-----0---0-------|-3-----3---3-

G ------------------------|-----------------|
D ------------------------|-2---------------|
A ----3---3----------3h5--|-----------------|
E -1----1---1----3h5------|-----------------|

Chorus:
Fig. 2
G --------------------|--------------------|------------------|
D --------------------|--------------------|------------------|
A -5-----5----5-------|----5------5-----5-|0-----0----0-----|
E ----5---5---------5|---------5----5-----|----0----0------0-|

G --------------------|--------------------|------------------
D ------2----2--------|-2-----2----2-------|------------------
A ----2---2--------2--|-----2---2---------|-0----0---0------
E 0------------------|--------------------|-----0---0-------0

G --------------------|--------------------|---------------
D --------------------|--------------------|---------------
A 0-----0----0-------|--5----5---5-------|-5-----5---5--
E ----0---0----------|-----5---5-------5--|------5---5----


G --------------------|--------------------|------------------
D --------------------|--------------------|-------2----2-----
A 0-----0----0-------|-0-----0---0-------|----2---2-------2
E ----0---0--------0-|-----0---0----------|-0----------------

G ---------------------|
D ---------------------|
A -2-------------------|
E ---------------------|

Outro:
Fig. 1
Play 6 times.

G ---------------------|-----------------|
D ---------------------|-----------------|
A ----0-----0----0-----|-0-----0----0----|
E -------0---0------0-|----0----0-------|

I got this from the Santana book my friend has so I'm pretty sure it's 
right.  Check repetition with CD.

any Q's or Comments write me at prince_williams_2001@yahoo.com

peace out
Comments