Carlos Santana - Love Of My Life Chords & Tabs

 

Love Of My Life Chords & Tabs

Carlos Santana Chords & Tabs

Version: 1 Type: Tab 0 ratings
1 star 2 stars 3 stars 4 stars 5 stars
comments

Love Of My Life Tab

Love of My life By Santana and Dave Matthews 
   gr8sk8r97@aol.com 

   Intro 
   e|--------------------------------------------------------- 
   B|--------------------------------------------------------- 
   G|--------------------------------------------------------- 
   D|-5-7-8--10/12\10-7--5-7-8--15-13-7--7/8-10-10--13-12----- 
   A|-----------------------------------------------------13-- 
   E|--------------------------------------------------------- 

   e|--------------------------------------------------------- 
   B|--------------------------------------------------------- 
   G|--------------------------------------------------------- 
   D|--12-10-5--5-5-5-4-5-7-7--------------------------------- 
   A|--------------------------------------------------------- 
   E|--------------------------------------------------------- 
[ Tab from: http://www.guitartabs.cc/tabs/c/carlos_santana/love_of_my_life_tab.html ]
   "Everyday, everynight...." 
   e|--------------------------------------------------------- 
   B|--------------------------------------------------------- 
   G|--------------------------------------------------------- 
   D|--5-7-8--15-13-7--12-10-5--4/5-8-7-5-5------------------- 
   A|--------------------------------------------------------- 
   E|--------------------------------------------------------- 


   Just Before Chorus 
   e|--------------------------------------------------------- 
   B|--------------------------------------------------------- 
   G|--------------------------------------------------------- 
   D|--7/8-10-10--13-12-----12-10-5--5-5-5-4-5-7-7------------ 
   A|-------------------13------------------------------------ 
   E|--------------------------------------------------------- 

   Chorus is the same as the intro 


   Interlude (2 Guitars arranged for 1) 

   e|---------3-5-6-----------------8/10\8-5---------3-6-5---- 
   B|--------------------------------------------------------- 
   G|--------------------------------------------------------- 
   D|--------------------------------------------------------- 
   A|--5-7-8----------10/12\10-7--------------5-7-8----------- 
   E|--------------------------------------------------------- 

   e|--15-13-7---5/6-8--8---11-10------10-8--3---3-3-3-2-3/5-5 
   B|-----------------------------11-------------------------- 
   G|--------------------------------------------------------- 
   D|--13-11-5---7/8-10-10--13-12------12-10-5---5-5-5-4-5/7-7 
   A|-----------------------------13-------------------------- 
   E|--------------------------------------------------------- 
Comments