Carlos Santana - Game Of Love Chords & Tabs

 

Game Of Love Chords & Tabs

Carlos Santana Chords & Tabs

Version: 4 Type: Tab 0 ratings
1 star 2 stars 3 stars 4 stars 5 stars
comments

Game Of Love Tab

Game of Love 
Santana

By Master 378
Shaoran_Yagami@hotmail.com

Intro:

e|-------------(10)---------------10-10-10-10/12--------------------------|
B|-----------10--------10-12--------------------------11h12-11h12-10-12---|
G|-10/11--12----11--------------------------------------------------------|
D|------------------------------------------------------------------------|
A|------------------------------------------------------------------------|
E|------------------------------------------------------------------------|

e|-------------------------------------------------10-10-10-10-10-12-14-14-12/14-|
B|---------------------11/12-10----10------10/12---------------------------------|
G|------9-11-9-11------10/11----11-----------------------------------------------|
D|-12----------------------------------------------------------------------------|
A|-------------------------------------------------------------------------------|
E|-------------------------------------------------------------------------------|

e|-12-10-12-10----10--------|
B|-------------12-----------|
G|--------------------------|
D|--------------------------|
A|--------------------------|
E|--------------------------|


Solo:

e|-14***-14-14-12-10-12-10-10-10------15-14/15-14------------------------------|
B|------------------------------11/12-------------15----------------------------|
G|--------------------------------------------------------9----------9-11-11----|
D|-----------------------------------------------------------12-9-12------------|
A|------------------------------------------------------------------------------|
E|------------------------------------------------------------------------------|
   *14 X lots

e|-10-10-10-12-12-12-14------------17----------17----------17-----|
B|---------------------------14/15-------14/15-------14/15--------|
G|----------------------------------------------------------------|
D|----------------------------------------------------------------|
A|----------------------------------------------------------------|
E|----------------------------------------------------------------|
[ Tab from: http://www.guitartabs.cc/tabs/c/carlos_santana/game_of_love_tab_ver_4.html ]
e|-17-14-17-14-17-17-14-17-17-14-17-14-17-14-17-14-17-14-17-17^19---|
B|------------------------------------------------------------------|
G|------------------------------------------------------------------|
D|------------------------------------------------------------------|
A|------------------------------------------------------------------|
E|------------------------------------------------------------------|


e|-17^19-17^19-17^19-17^19-17^19-17^19-17^19--17-14-17-14-----14------|
B|---------------------------------------------------------17---------|
G|--------------------------------------------------------------------|
D|--------------------------------------------------------------------|
A|--------------------------------------------------------------------|
E|--------------------------------------------------------------------|


e|-14----------12-----------12--------------------------------------------|
B|----15-15-15----12-12-15-----14/15\14---12-12--14-14-14--15-15-15-------|
G|------------------------------------------------------------------------|
D|------------------------------------------------------------------------|
A|------------------------------------------------------------------------|
E|------------------------------------------------------------------------|


e|-----19--21-21-22-21-|*-22-21-19--22-21-19--22-21-19--22-21-19-|
B|-/19-----------------|-----------------------------------------|
G|---------------------|-----------------------------------------|
D|---------------------|-----------------------------------------|
A|---------------------|-----------------------------------------|
E|---------------------|-----------------------------------------|
                         *There are two ways for play this:

       T         T         T         T
1.- e|-22-21-19--22-21-19--22-21-19--22-21-19-|
Using Taps

2.- e|-22p21p19--22p21p19--22p21p19--22p21p19-|
pull-off (More Dificult as #1)


e|-22-22^24--19-19--22-19-19--17-----------------------------|
B|-------------------------------19---18/19--17-15-17-15-----|
G|-----------------------------------------------------------|
D|----------------------------------------------------Etc...-|
A|-----------------------------------------------------------|
E|-----------------------------------------------------------|

After this Michelle Branch start's to sing again...
The rest of the solo i haven't tabbed it yet.

Tab symbols used:

     T .- Tap
     p .- Pull-of
     h .- hammer on
  / or \ .- slide
    (X).- Ghost Note
     ^ .- Bend
Comments