Carlos Santana - El Farol Chords & Tabs

 

El Farol Chords & Tabs

Carlos Santana Chords & Tabs

Version: 1 Type: Tab 0 ratings
1 star 2 stars 3 stars 4 stars 5 stars
comments

El Farol Tab

   
Santana "El Farol".
Tabbed by Chris Parker: guitarduderox@yahoo.com.
  
e ----------------------------------------------------------/                        
B -13-------13-12------14--------------6-10--9------------------------------------------------/
G ----10-9---------7h9-----5-7--7-5-4----------10-7/9*-5h7-5-7-9-7-9---------------------/
D ---------------------------------------------------/
A ------------------------------------------------/
E ----------------------------------------------/
                                                                 *may be slide

e -----------------------------------------------------------/                        
B -13----------13-12---8-------------10----------------6-10-9h10p9-------------------------/
G ----10-9-10--------7----7-9-999------5-77-5-4------------------10-7h9-7-5-7-9-7-9-/
D ------------------------------------------------------/
A ---------------------------------------------------/
E -------------------------------------------------/

e -------------------------------/ /--------------------------------/                        
B ------------------------------/ /----------------------------/ /--------------------/
G ----9----9-7-10-10h12\9-/ /----5-7-9-7--4-7-5-7-9-/ /-----9---9-7-9-10-10/12-9-7-9-/
D --7---7---------------------/ /--7-------------------------/ /--7---7---------------------------/
A -----------------------------/ /--------------------------/
E ------------------------------/ /------------------/

e ----------------------------------------------------------------------------/                        
B ---------------------------------------------------------------------------/
G -----5-7-9-7--4-1----2/4-2--1-2-4--2-4-5-4-5-7-5-7-9--12-10-9-/
D --7------------------2----------------------------------------------------/
A ---------------------------------------------------------------------------/
E ---------------------------------------------------------------------------/
[ Tab from: http://www.guitartabs.cc/tabs/c/carlos_santana/el_farol_tab.html ]
e ----------------------------------------------------------/                        
B -13-------13-12------14--------------6-10--9------------------------------------------------/
G ----10-9---------7h9-----5-7--7-5-4----------10-7/9-5h7-5-7-9-7-9---------------------/
D ---------------------------------------------------/
A ------------------------------------------------/
E ----------------------------------------------/

e -----------------------------------------------------------/                        
B -13----------13-12---8-------------10----------------6-10-9h10p9-------------------------/
G ----10-9-10--------7----7-9-999------5-77-5-4------------------10-7h9-7-5-7-9-7-9-/
D ------------------------------------------------------/
A ---------------------------------------------------/
E -------------------------------------------------/

 
e -------------------------------/ /--------------------------------/                        
B ------------------------------/ /----------------------------/ /--------------------/
G ----9----9-7-10-10h12\9-/ /----5-7-9-7--4-7-5-7-9-/ /-----9---9-7-9-10-10/12-9-7-9-/
D --7---7---------------------/ /--7-------------------------/ /--7---7---------------------------/
A -----------------------------/ /--------------------------/
E ------------------------------/ /------------------/

e ----------------------------/                        
B --------------------------/ /-------------------6-8-6-----10-8--------------/
G --5-7-9-7--4-1---4 2-/ /-----5--9-77-9--------9-7------9/10p9-7-9/
D -7---------------2------/ /--7--7-------------------------------------------/
A --------------------------/
E --------------------------/

e ----------------------------------------------------------------------------/                        
B ---------------------------------------------------------------------------/
G -----5-7-9-7--4-1----2/4-2--1-2-4--2-4-5-4-5-7-5-7-9--12-10-9-/
D --7------------------2----------------------------------------------------/
A ---------------------------------------------------------------------------/
E ---------------------------------------------------------------------------/

(end solo coming soon)


H = hammer-on
/ = slide

this tab is similar to the tab that javierdlf241@aol.com, but his timing is all off, as well as some of the notations.  His tab is found at Http://www.guitartabs.cc/cgi-bin/tablocate.cgi?filename=/s/santana/el_farol.tab.  If you have any comments just write to guitarduderox@yahoo.com or yknrnr2003@hotmail.com Happy tabbing! 
 
:: Ultimate Guitar Archive :: 
http://www.ultimate-guitar.com 



Comments