Carlos Santana - Black Magic Woman Live Chords & Tabs

 

Black Magic Woman Live Chords & Tabs

Carlos Santana Chords & Tabs

Version: 3 Type: Tab 0 ratings
1 star 2 stars 3 stars 4 stars 5 stars
comments

Black Magic Woman Live Tab

ahora ya esta el tab completo con algunas correciones lo unico que le falta,antes de
entrar a lo de gypsy queen,es tocar el intro pero ahora al final y eso es todo. now
here is all the tab, just one indication after you've played all,you must repeat the
intro and you go to gypsy queen.   enjoy it

(0:07)
--------------------------------------------------------------------------|
------------------------------------1011p10------------------------------|
----9/10----7/8/7---10p12h10----10-----------12--9-10p9p7----7------------|
-----------------------------12---------------------------10--------------|
--------------------------------------------------------------------------|
--------------------------------------------------------------------------|
(0:22)
--------------------------------------------------------------------------|
---10-----------------------1013p10-13p10----10--------------------------|
------12-10/9---12--10-9/7-----------------12-----------------------------|
--------------------------------------------------------------------------|
--------------------------------------------------------------------------|
--------------------------------------------------------------------------|
(0:29)
------------------------------------------------------------------------10-|
----10---------------------------------------------------------------10-10-|
-------12-10-9---10-9-1010h12-12-12-12-10h12-12-12-12-10-9--------10---10-|
-----------------------------------------------------------------12--------|
---------------------------------------------------------------12----------|
---------------------------------------------------------------------------|

(0:37)
---10-10-------------------10----10---------------------------------------|
---------13-10-13-13b14b15----13-----13p10----10--------------------------|
-------------------------------------------12----12-1012p10(x3)--9-------|
--------------------------------------------------------------------------|
--------------------------------------------------------------------------|
--------------------------------------------------------------------------|

(0:45)
-------10-13-10----10----------10-12-13-15-10-12-13-10-12-13-10-13p12p10-10-|
-10-13----------13----13p12p10----------------------------------------------|
----------------------------------------------------------------------------|
----------------------------------------------------------------------------|
----------------------------------------------------------------------------|
----------------------------------------------------------------------------|

(0:50)
--10-13p12p10-13p12p10----10--------13-15b17-15b17-15p14p13----13-15-------|
-----------------------13----13--15-------------------------15-------------|
---------------------------------------------------------------------------|
---------------------------------------------------------------------------|
---------------------------------------------------------------------------|
---------------------------------------------------------------------------|
[ Tab from: http://www.guitartabs.cc/tabs/c/carlos_santana/black_magic_woman_live_tab_ver_3.html ]
(0:54)       Esto va rapido y repitelo segun como lo escuches
--18b20--18(13p10)------------------------------------------------10/110--|
--------------------(13p10)----------------------------------------10/110--|
----------------------------(12p10)--------------------------------10/110--|
------------------------------------(12p10)---------------------------------|
--------------------------------------------(12p10)-------------------------|
----------------------------------------------------------------------------|
             This goes really fast and repeat it as you wish

 (second guitar) (1:58)
-10------------------------10-------------------------------10h12h13------|
----13-13b15-10-13-13b15------13-------------------10h12h13---------------|
---------------------------------12-10-9-9-9h10h12------------------------|
--------------------------------------------------------------------------|
--------------------------------------------------------------------------|
--------------------------------------------------------------------------|

(2:07)
--13-12-10-12-13-12-13b15(15b17r15-13)x2-15-15b17r15-15b17r15-1318b20---|
--------------------------------------------------------------------------|
--------------------------------------------------------------------------|
--------------------------------------------------------------------------|
--------------------------------------------------------------------------|
--------------------------------------------------------------------------|

(Santana)(2:19)
-8/10-10/12-8/10-10-13-10----10----------------10----10-------------------|
--------------------------13----13-10----10-------13----13h10----10-------|
--------------------------------------12----------------------12-----12---|
--------------------------------------------------------------------------|
--------------------------------------------------------------------------|
--------------------------------------------------------------------------|

(2:24)
-----------------10h13p10----10----10h13p10----10h13p10----10h1313b15----|
--------------13----------13----13----------13----------13----------------|
-(12p10)x3-9--------------------------------------------------------------|
--------------------------------------------------------------------------|
--------------------------------------------------------------------------|
--------------------------------------------------------------------------|

(2:31)
-(15p13)x8(18p15)x4-18---20b22-20b22-20b22r20-18-20-20b22r20-20b22-------|(hold)
---------------------------------------------------------------------------|
---------------------------------------------------------------------------|
---------------------------------------------------------------------------|
---------------------------------------------------------------------------|
---------------------------------------------------------------------------|

(2:37) this goes relly fast
--------(18)t-------------------------------------------------------------|
--------------------------------------------------------------------------|
--------------------------------------------------------------9-10--------|
--------------------------------------------------------10-13-------------|
-----------------------------------------------10-11-12-------------------|
--------------------------------------------------------------------------|
       esto va rapido

alguna correcion: venistes@hotmail.com (Hector Reyes) Dill
Dedicated to: Alma (YYYYYYYYYY NO ES CIERTO)no esta bien
Comments