Carl Thomas - My First Love Chords & Tabs

 

My First Love Chords & Tabs

Carl Thomas Chords & Tabs

Version: 1 Type: Tab 0 ratings
1 star 2 stars 3 stars 4 stars 5 stars
comments

My First Love Tab

Carl Thomas - My First Love
Tabbed by: Raidlink

Guitar 1 is played out through the song. with guitar 2 starting after it.


Guitar 1
e|------------------------------------------------------|
B|------------------------------------4--4----4---------|
G|--------4h7p4-----------7h8p7-------4--4----4---------|
D|-----4---------4-----7--------7-----4--4----4---------|
A|------------------------------------------------------|
E|--4--------------7------------------------4-----------|
[ Tab from: http://www.guitartabs.cc/tabs/c/carl_thomas/my_first_love_tab.html ]
e|------------------------------------------------------|
B|--9--9----12--9--7--------8h10p8-------11-------------|
G|--9--9-----------7-----8---------8--9-----------------|
D|--9--9-----------7------------------------------------|
A|------------------------------------------------------|
E|------------------------------------------------------|
Guitar 2
e|------------------------------------------------------|
B|------------------------------------------------------|
G|--2--4--5--7--7/9---9\---9\7---5----5h6p5--5----------|
D|---------------------------------------------5--------|
A|------------------------------------------------------|
E|------------------------------------------------------|
Comments