Carissas Wierd - You Should Be At Home Here Chords & Tabs

 

You Should Be At Home Here Chords & Tabs

Carissas Wierd Chords & Tabs

Version: 1 Type: Tab

You Should Be At Home Here Tab

Song:	You Should be at Home Here
Band:	Carissa's Wierd
Album:	You Should be at Home Here
**I didn't tab this one but found and saved it a while ago online on some site I can't 
again.


  Guitar 1 (main riff)
e-----------------------------------------------------------------------------|
B-----------------------------------------------------------------------------|
G------------------4-4-4-4-4-4-4-4-------------------6-6-6-6-6-6-6-6----------|
D-6-6-6-6-6-6-6-6--4-4-4-4-4-4-4-4--4-4-4-4-4-4-4-4--6-6-6-6-6-6-6-6----------|
A-6-6-6-6-6-6-6-6--2-2-2-2-2-2-2-2--4-4-4-4-4-4-4-4--4-4-4-4-4-4-4-4----------|
E-4-4-4-4-4-4-4-4-------------------2-2-2-2-2-2-2-2---------------------------|


  Guitar 2 (verse 1)
e-----------------------------------------------------------------------------|
B-----------------------------------------------------------------------------|
G-----------------------------------------------------------------------------|
D-----------------------------------4--4--4--4--4-----------------------------|
A-2-2-2-2-2-2-2-2------------------2--2--2--2--2------------------------------|
E-----------------4-4-4-4-4-4-4-4-0--0--0--0--0-------------------------------|
[ Tab from: http://www.guitartabs.cc/tabs/c/carissas_wierd/you_should_be_at_home_here_tab.html ]
  Guitar 2 (verse 2)
e-----------------------------------------------------------------------------|
B-----------------------------------------------------------------------------|
G--4-4-4-4-4-2-4-4-4-4-4-4-2-4------------------------------------------------|
D-2-2-2-2-0-----2-2-2-2-0-----------------------------------------------------|
A-----------------------------------------------------------------------------|
E-----------------------------------------------------------------------------|

  Guitar 2 (end)
e-----------------------------------------------------------------------------|
B-----------------------------------------------------------------------------|
G-4-2-0-4-2-0-4-2-0-4-2-------------------------------------------------------|
D-----------------------------------------------------------------------------|
A-----------------------------------------------------------------------------|
E-----------------------------------------------------------------------------|

Structure:

Guitar 1 (main riff)- play for most of the song.
Guitar 2 (verse 1)- comes in on the start of the third time of the main riff.
Guitar 1 (main riff)- play each chord 2 times through for verse 2.
Guitar 2 (verse 2)
Guitar 2 (end)