Cardigans - Lovefool Chords & Tabs

 

Lovefool Chords & Tabs

Cardigans Chords & Tabs

Version: 1 Type: Tab 0 ratings
1 star 2 stars 3 stars 4 stars 5 stars
comments

Lovefool Tab

   
Song Title: Lovefool
Artist/Band: The Cardigans
Album: First Band on the Moon

Tab by JC Rea(jcrp_21@hotmail.com)

Symbols:

/=slide-up
\=slide-down
b=bend
r=release bend
()=let ring

Tuning:Standard

INTRO:
e|-12-12---12-12---12-12-|
B|-13-13---13-13---13-13-|
G|-----------------------|
D|-----------------------|
A|-----------------------|
E|-----------------------|


1st VERSE:

"Dear, I fear we're facing a problem...
e|-12-12------------13-13--|
B|-13-13------------13-13--|
G|-------------------------|
D|-------------------------|
A|-------------------------|
E|-------------------------|

...you love me no longer, I know...
e|----13-13-------12-12--|
B|----13-13-------13-13--|
G|-----------------------|
D|-----------------------|
A|-----------------------|
E|-----------------------|

...and maybe there is nothing...
e|----12-12-----------13-13-----|
B|----13-13-----------13-13-----|
G|------------------------------|
D|------------------------------|
A|------------------------------|
E|------------------------------|

...that I can do to make you do"
e|----------13-13------------12-12--|
B|----------13-13------------13-13--|
G|----------------------------------|
D|----------------------------------|
A|----------------------------------|
E|----------------------------------|


2nd VERSE:

"Mama tells me I shouldn't bother...
e|----------|
b|-/(12)/13-|
G|----------|
D|----------|
A|----------|
E|----------|
[ Tab from: http://www.guitartabs.cc/tabs/c/cardigans/lovefool_tab.html ]
...that I ought to stick to another man
e|----------------------------------|
B|----------------------------------|
G|-10\4/(7)----4b5r4b5r4b5r4b5--(2)-|
D|----------------------------------|
A|----------------------------------|
E|----------------------------------|

 a man that surely deserves me
 but I think you do!"


PRECHORUS:

"So I cry, and I pray and I beg..."
e|-0---0-x---x-3---3-x---x--|
B|-1---1-5---5-1---1-1---1--|
G|-3---3-3---3-2---2-1---1--|
D|-2---2-5---5-2---2-2---2--|
A|-3---3-4---4-0---0-2---2--|
E|-------x---x-x---x-x---x--|


1st CHORUS RIFF:
(Listen to the song to figure the ryhtm out)
e|--9--|
B|-10--|
G|--9--|
D|-----|
A|-----|
E|-----|

"Love me love me
 say that you love me
 fool me fool me
 go on and fool me
 love me love me
 pretend that you love me
 leave me leave me
 just say that you need me"


"So I cried...          ...and I begged for you to"
e|----------------------|---------------------------|
B|-9--6-9-6--9-6--9-6-4-|-7-4-7-4-7-6------7-9-10\--|
G|----------------------|--------------7-9----------|
D|----------------------|---------------------------|
A|----------------------|---------------------------|
E|----------------------|---------------------------|

REPEAT CHORUS

Chorus ends with:
"I don't care 'bout anything but you..."
e|-5------x----------x--|
B|-5------3----------1--|
G|-5------2----------1--|
D|-7------3----------2--|
A|-7------2----------2--|
E|----------------------|


2nd VERSE and 2nd PRECHORUS are the same as 1st ones

2nd CHORUS RIFF:
(Listen to the song to figure the rythm out)
e|--9----14----9---9--|
B|-10----14---10---9--|
G|--9----14----9---9--|
D|--------------------|
A|--------------------|
E|--------------------|

*******************


It's the same for the rest of the song

Comments:jcrp_21@hotmail.com
Comments