Cardigans - Love Fool Chords & Tabs

 

Love Fool Chords & Tabs

Cardigans Chords & Tabs

Version: 1 Type: Bass Tab 0 ratings
1 star 2 stars 3 stars 4 stars 5 stars
comments

Love Fool Bass Tab

"Lovefool"
recorded by the Cardigans
lyrics and music by Peter Svensson and Nina Persson
.
Revision history:
1.0 bass tablature - transcribed by Edmond Hum (ehum@inforamp.net) feb.15.97
1.1 htmlized and archived by Hong (etc@dartmouth.edu) 3/13/97
.
The most current version of this tab can always be found at Fine Tabs
(http://www.dartmouth.edu/~htkwon/cardigans/tabs) [this address subject
to change slightly without notice].  This is a HumHongous Ltd. Production.
------------------------------------------------------------------------
.
[VERSE]
e-------------| g---------------------------|
d-------------| d---------------------------|
a-------3--5--| a-------2--3--(3--3-2h3-2)--|
e--5---5------| e--3---3--------------------|
[ Tab from: http://www.guitartabs.cc/tabs/c/cardigans/love_fool_btab.html ]
.
.
[BRIDGE]
g------------------------------------------------|
d------------------------------------------------|
a--2-3---3-4---4-5---5-6--------6-7--------------|
e------------------------------------------------|

.
.
[CHORUS]
g---------| g-----------|
d---------| d-----------|
a----4-5--| a-----5--7--|
e--5------| e--7-7------|

.
.
g------------|------------|------------|---|---------------|
d------------|-------9----|------------|-7-|---------------|
a--9-----9---|-----9---9--|-7-----7----|---|--------5---7--|
e------9---9-|-7----------|-----7---7--|---|---------------|

.
.
[TAG]
g----------------------------------------|
d----------------------------------7-----|
a----------5----------7-----------[or]---|
e--5-------------------------------5-----|

.
.
[CODA]
g---------| g-----------|
d---------| d-----------|
a----4-5--| a-----5--7--|
e--5------| e--7-7------|


Comments