Cardigans - Heartbreaker Chords & Tabs

 

Heartbreaker Chords & Tabs

Cardigans Chords & Tabs

Version: 1 Type: Bass Tab 0 ratings
1 star 2 stars 3 stars 4 stars 5 stars
comments

Heartbreaker Bass Tab

   
Bass
3/4 time

intro                    verse pattern
                    (Aflat) (Bflat)          (Aflat)          (Bflat)
---------------------------|----------------------------------------------
-----6-------------6-------|--------6-----------------------6-------------
-------5--------------5----|-------------------5--6-------------------5--6
-4-----------4-------------|----4------4-6------------4-------4---6-------


--------------------------------------------------------------------------------
------6------------------------6---------------6--------------------6-----------
------------------5--6----------------5-6-----------------5--6--------------5--6
-4------4-6--------------4------4-6-------4------4----6-------4-----4---6-------


-----------------------------------------------------------------
------6---------------------------------4------------------------
-----------------------5----6---------------------5------3------1
-4-------4-----6------------------4--------4---------------------

pre-chorus pattern
(Bdim)                        (A)     (D)
-------4---------------------------------
------------2----------------------------
-2 ------2-----------------------------5-
-------------------------------5---------
No, not again.               A loser I am.
[ Tab from: http://www.guitartabs.cc/tabs/c/cardigans/heartbreaker_btab.html ]
Chorus pattern
(G)           (B)     (C)            (D)     (Eflat)     (F)        (Bflat)        (D)
---------------------------------------------------------------------------------------
----------------------------------------------1-----------3-------------------------0--
---------------2---2--3---------4----5-------------------------------1-----------------
-3-----------3-----------------------------------------------------1-------------------(repeat)


verse pattern#2

------------------------------------------------------------------------------
-------6-----------------------6--------------------6-------------6-----------
------------------5--6-------------------5--6-----------5-6----------------5--
-4-------4----6----------4------4---6----------4-----6------4-----4---6------6

---------------------------------------------------------
-----6-------------------------6-------------------------
------------------5---6--------------------5-5--6-6--8-8-
4------4------6-----------4------4--6-6------------------


outro
--------------------------------------------------------------------
--------6-------------------6---------------6-----------------6-----
--------------5------------------5--------------5-----------------5-
-4-------------------4-----------------4----------------4-----------


Comments