Cardigans - For What Its Worth Chords & Tabs

 

For What Its Worth Chords & Tabs

Cardigans Chords & Tabs

Version: 1 Type: Tab 0 ratings
1 star 2 stars 3 stars 4 stars 5 stars
comments

For What Its Worth Tab

Song: For What Itís Worth
Band: The Cardigans
Tabbed by: Ricardo Dias, Lisbon


(INTRO)
[ Tab from: http://www.guitartabs.cc/tabs/c/cardigans/for_what_its_worth_tab.html ]
00:00
|--------------------------------------------------------|
|------5-6-5------------5-----------5------------5-------|
|--5h7-------7-5----5-----5-7---5------5-7---5------5-7--|
|--------------------------------------------------------|
|--------------------------------------------------------|
|--------------------------------------------------------|


00:08                               x4
|--------------------------------------------------------|
|------5-6-5---------------6/8-6-5-6-5-6-5-6-------------|
|--5h7-------7-5-----------7/9-7-5-7-5-7-5-7-------------|
|--------------------------------------------------------|
|--------------------------------------------------------|
|--------------------------------------------------------|
Comments