Cardigans - Fine Chords & Tabs

 

Fine Chords & Tabs

Cardigans Chords & Tabs

Version: 2 Type: Bass Tab 0 ratings
1 star 2 stars 3 stars 4 stars 5 stars
comments

Fine Bass Tab

"Fine"
.
recorded by the Cardigans
lyrics by Magnus Sveningsson
music by Peter Svensson
from the album 'Life' (1995)
.
Revision history:
1.0: bass tablature - transcribed by Edmond Hum (ehum@inforamp.net) 
feb.19.97 
1.1: htmlized and archived by Hong (etc@dartmouth.edu) 3/22/97
.
The most current version of this tab can always be found at Fine Tabs
(http://www.dartmouth.edu/~htkwon/cardigans/tabs) [this address subject
to change slightly without notice]. This is a HumHongous Ltd. 
Production. 
------------------------------------------------------------------------
.
[INTRO]
g-----------------------|
d---------9-------------|
a--10---9---7-------10--|
e--------------8-10-----|
.
.
[VERSE]
g|----------------------------|--------------9-9-9-7---------|
d|:--------9-9-9--------------|--------9-9-9---------9-7-9--:| repeat
a|:--10-10-------7-7-5-5-7-5--|--10-10----------------------:| 3x
e|----------------------------|------------------------------| <---
[ Tab from: http://www.guitartabs.cc/tabs/c/cardigans/fine_btab_ver_2.html ]
.
.
g|----------------------------|--------------9-9-9-11-9-7----|
d|--------9-9-9---------------|--------9-9-9--------------9--|
a|--10-10-------7-7-5-5-7-5---|--10-10-----------------------|
e|----------------------------|------------------------------|

.
.
g|----------------------------|------------------------------|
d|:--------9-9-9--------------|--------9-9-9----------------:| repeat
a|:--10-10-------7-7-5-5-7-5--|--10-10-------7-7-5-5-7-5----:| 2x
e|----------------------------|------------------------------| <---

.
.
[BRIDGE]
g|------------------|        |------|
d|:----------------:| repeat |------|
a|:----10---10-----:| 4x     |------|
e|---8----8----7----| <---   |--10--|

.
.
[CHORUS]
g|-------------------------------------------------|        |---------|
d|:--------------------9--------------------------:| repeat |---------|
a|:--10--10-10---10-9------7--7-7-----------------:| 3x     |---------|
e|-----------------------7--------10-9--9-10--10---| <---   |--11-10--|

.
.
[CHORUS - CODA]
g|---------------------|
d|---------------------| some variations here...
a|--10-----7-----------| so, improvise as you go along.
e|------7-----8---10---|


g|---------------|
d|---------------|
a|----------10---|
e|--11--10-------|

Comments