Cardigans - Erase Rewind Chords & Tabs

 

Erase Rewind Chords & Tabs

Cardigans Chords & Tabs

Version: 2 Type: Tab 0 ratings
1 star 2 stars 3 stars 4 stars 5 stars
comments

Erase Rewind Tab

Song:Erase/Rewind
Artist:The Cardigans
Album:Gran Turismo
Tabbed By:Cillian O'Hogan (cohogan@tinet.ie)
Tuning:Normal

I'm not tabbing the rhythm to it, you can figure it out yourself.
Chorus is a bit iffy.
[ Tab from: http://www.guitartabs.cc/tabs/c/cardigans/erase_rewind_tab_ver_2.html ]
Intro/main riff:
e|-------------------------------------------------------------------|
B|-----------------3--------------------------3----------------------|
G|--------------0-----4--2--4s6--2---------0-----4--2--4--2--4s6--2--|
D|--2--2--2--4-----------------------2--4----------------------------|
A|-------------------------------------------------------------------|
E|-------------------------------------------------------------------|

Verse bit:
e|-----------------------|
B|--------3--------3-----|
G|-----0--------0--------|
D|--4--------4--------2--|
A|-----------------------|
E|-----------------------|

Chorus:
e|-----------------------------------------------------|
B|-----------------------------------------------------|
G|--1--1-----------------------------------------------|
D|--2--2--7--5-----5-----5--7--5-----4--5--4--5--------|
A|--2--2--------7-----7-----------7--------------7--5--|
E|--0--0-----------------------------------------------|
Comments