Cardigans - Erase And Rewind Chords & Tabs

 

Erase And Rewind Chords & Tabs

Cardigans Chords & Tabs

Version: 1 Type: Bass Tab 0 ratings
1 star 2 stars 3 stars 4 stars 5 stars
comments

Erase And Rewind Bass Tab

   
The Cardigans
Erase & Rewind


Tuning : E A D G 	Time Signature: 4/4


Verse
g|--------------------------------|
d|--------------------------------|
a|--------------------------------|
e|0-------0-----0-2-3-----3-----3-|


g|--------------------------------|
d|--------------------------------|
a|0-2-2---2-----2-0-------0-------|
e|--------------------------------|


[ Tab from: http://www.guitartabs.cc/tabs/c/cardigans/erase_and_rewind_btab.html ]
Break
g|--------------------------------|
d|--------------------------------|
a|--------------------------------|
e|3-------3---2-------2---0-------|



Chorus
g|--------------------------------|
d|2-2-2---2-------2-------2-------|
a|--------------2-----------------|
e|--------------------------------|

g|--------------------------------|
d|--------------------------------|
a|2----2---2-0-0-----0------------|
e|--------------------------------|

Tabbed by Jono E mail: jonocoote@esatclear.ie

Comments