Cardigans - Carnival Chords & Tabs

 

Carnival Chords & Tabs

Cardigans Chords & Tabs

Version: 2 Type: Tab 0 ratings
1 star 2 stars 3 stars 4 stars 5 stars
comments

Carnival Tab

   
#----------------------------------PLEASE NOTE---------------------------------#
#This file is the author's own work and represents their interpretation of the #
#song. You may only use this file for private study, scholarship, or research. #
#------------------------------------------------------------------------------##
Date: Wed, 15 Nov 1995 01:06:40 -0500 (EST)
From: Edmond Hum 
Subject: TAB: "Carnival" by The Cardigans

CARNIVAL

by persson svensson sveningsson
performed by the cardigans
from 'life'
transcribed by edmond hum (ehum@inforamp.net) - nov.15.1995

---------------



     C9    B9    Bm   Em    D
 e---3-----2-----2----0-----2---
 b---0-----0-----3----0-----3---
 g---3-----2-----4----0-----2---
 d---2-----1-----4----2-----0---
 a---3-----2-----2----2---------
 e--------------------0---------


---start---

- C9 B9 Bm -

   Em
   I will never know
         D
   cause you will never show
Em 
   come on and love me now
D  
   come on and love me now


   Em
   I will never know
         D
   cause you will never show
Em 
   come on and love me now
D  
   come on and love me now
C9             B9
   come on and love me now


     Em                        D
 e---10-9------10-10-9------12-10-9-------------9----|
 b--------8------------8------------7----5-7-10-----:|
 g---------------------------------------------------|    [2x]
 d---------------------------------------------------|
 a--------------------------------------------------:|
 e---------------------------------------------------|

[ Tab from: http://www.guitartabs.cc/tabs/c/cardigans/carnival_tab_ver_2.html ]
   Em                  D
   Carnival came by my town today
                      Em   
   bright lights from giant wheels
               D   
   fall on the alleyways
   
   and I'm here
   C9   
   by my door
   B9          Bm
   waiting for you
   

   Em
   I will never know
         D
   cause you will never show
Em 
   come on and love me now
D  
   come on and love me now


   Em
   I will never know
         D
   cause you will never show
Em 
   come on and love me now
D  
   come on and love me now
C9             B9
   come on and love me now


     Em                        D
 e---10-9------10-10-9------12-10-9-------------9----|
 b--------8------------8------------7----5-7-10-----:|
 g---------------------------------------------------|    [2x]
 d---------------------------------------------------|
 a--------------------------------------------------:|
 e---------------------------------------------------|


   Em   
   I hear sounds of lovers
   D
   barrel organs, mothers
   Em 
   I would like to take you
   D
   down there
                    C9
   just to make you mine
        B9       Bm
   in a merry-go-round


   Em
   I will never know
         D
   cause you will never show
Em 
   come on and love me now
D  
   come on and love me now


   Em
   I will never know
         D
   cause you will never show
Em 
   come on and love me now
D  
   come on and love me now


Em D
     come on and love me now
Em
   come on and love me now
D
   come on and love me now


Em       D
   mmmm... come on and love me now
Em
   come on and love me now
D
   come on and love me now
C9             B9
   come on and love me now


- Em D -  [3x]
- C9 B9 Bm -

---end---


Comments