Carcass - Tools Of The Trade Chords & Tabs

 

Tools Of The Trade Chords & Tabs

Carcass Chords & Tabs

Version: 1 Type: Tab 0 ratings
1 star 2 stars 3 stars 4 stars 5 stars
comments

Tools Of The Trade Tab

Solo to "Tools of the Trade"

Transcribed by:  John McCarron (mkracken@swbell.net)


|-------------19/21-19-17----------------------19-21~----------|
|-------------------------19----22-18-19-21-22--------22-18~~--|
|----------18----------------18--------------------------------|
|-16-18-20-----------------------------------------------------|
|--------------------------------------------------------------|
|--------------------------------------------------------------|
               
              )          ) ) ) )
|------------/----------/|/|/|/|-|-----21-18-------------17-14-------
|----------15---------14---------|-----------19----------------15----
|---------------18-17------------|-/17----------18----------------14-
|-15-17-18-----------------------|-----------------20-16-------------
|--------------------------------|-----------------------------------
|--------------------------------|-----------------------------------


--------14----------------------|----------------------------------
-----------14-------------------|----------------------------------
--------------14----------------|----------------------------------
--16-12----------13-------------|----------------------------13----
--------------------14-11-------|----------13----13-15-13-15----15-
--------------------------12~~~-|-15-13-15----15-------------------

[ Tab from: http://www.guitartabs.cc/tabs/c/carcass/tools_of_the_trade_tab.html ]
-------------------------------------------p--p--h-----|
--------------------------------13----15-17-14-13-14~~-|
--------------13----13-15-13-15----15------------------|
--13-15-13-15----15------------------------------------|
-------------------------------------------------------|
-------------------------------------------------------|

                                          <<>
|--------------------------------------|---------------------------
|--------------------------------------|---------------------------
|-/18~~--------------------------------|----------------h----------
|------16~~----------------------------|--12-13-15-13-12-13--------
|-----------17-19-21-19-17-19-17-16~~--|--------------------17-15--
|--------------------------------------|---------------------------

  >>>>>>>>>>>>>>>>>>>>>>>>>>>>>>
-----------------------------------|---------------------------------
-----------------------------------|---------------------------------
-----------------------------------|-----------------------------14--
--------------------)))~a.h.~)))---|--------------------15-16-18-----
--13---h--p--p-----/---------------|-----------14-16-17--------------
-----16-17-16-14-15----------------|--13-15-17-----------------------

                                                      )~~~~~~
---------------h--p------------14------h--p----------/-|
--------15~~-14-15-14~~-/14-15----15-14-15-14~~-13-13--|
--16-18------------------------------------------------|
-------------------------------------------------------|
-------------------------------------------------------|
-------------------------------------------------------|
Comments