Carcass - No Love Lost Chords & Tabs

 

No Love Lost Chords & Tabs

Carcass Chords & Tabs

Version: 1 Type: Tab 0 ratings
1 star 2 stars 3 stars 4 stars 5 stars
comments

No Love Lost Tab

   
"NO LOVE LOST"

band: CarcasS
album: HeartworK
song: "No love losT"

(tune down 2.5 steps to B):

intro:                  1.2.3                  4.
--|--------------------|----------------------|------------
--|--------------------|----------------------|------------
--|--------------------|----------------------|------------
--|--------------------|-----------------7----|------------
--|--2/4-4-4-4----3----|---------5-----7---7--|---------5--
--|--0H2-2-2-2--5---5--|--(5)-/7---7-8--------|--(5)-/7---7

----------|--
----------|--
----------|--
----------|--
---7------|--
-8---8-5--|--

[ Tab from: http://www.guitartabs.cc/tabs/c/carcass/no_love_lost_tab.html ]
main verse riff (approximately) (3/4 meter):
--|---------------|-----------------|---------------|------
--|---------------|-----------------|---------------|------
--|---------------|-----------------|---------------|------
--|---------------|-----------------|---------------|------
--|--2/4-4-4-4\2--|--2/5-5-5-5-5\2--|--2/4-4-4-4\2--|--4/5-
--|--0/2-2-2-2\0--|--0/3-3-3-3-3\0--|--0/2-2-2-2\0--|--2/3-
     e e e e e e     sim.

-------------|--
-------------|--
-------------|--
-------------|--
4/5-5/7-7/8--|--
2/3-3/5-5/6--|--


===========================================================
******************MY LIFE ITS MY OWN, TO LIVE MY OWN WAY!!!
===========================================================


ATT: OzzY!!!
Comments