Carcass - No Love Lost Chords & Tabs

 

No Love Lost Chords & Tabs

Carcass Chords & Tabs

Version: 1 Type: Bass Tab 0 ratings
1 star 2 stars 3 stars 4 stars 5 stars
comments

No Love Lost Bass Tab

   
Tuning-B,E,A,D

D |-----------------------------------|
A |-------------------------------7---|
E |-----------------------------7---7-|
B |-0-h2-2-2-2---/8-5---7---7-8-------|

D |-------------------------------------------------------------------------|
A |-------------------------------------------------------------------------|
E |-------------------------------------------------------------------------|
B |0-h2-2-2-2-p0-0-h3-3-3-3-p0-0-h2-2-2-2-/3-3-/5-5-/6-6-\3-0-h2-2-2-2-p0-0-|

  -----------------------------------------|
  -----------------------------------------|
  -----------------------------------------|
  -h1-1-1-1-p0-0-h2-2-2-2-/3-3-/5-5-/6-6-\3|

D |----------------------------------------------------------------------|
A |----------------------------------------------------------------------|
E |---------5-\4-6-------5-\4-6---------------4-\3-5--------4-\3-5-------|
B |-4-4-4-4--------4-4-4--------4-4-4-3-3-3-3---------3-3-3--------3-3-3-|

  -------------------------------------------------------------------|
  -------------------------------------------------------------------|
  -------------------------------------------------------------------|
  -------------------------------------------------------------------|
  ---------5-\4-6-------5-\4-6---------------4-5---------------------|
  -6-6-6-6--------6-6-6--------6-6-6-5-5-5-5---------5-4-----2-1-----|
[ Tab from: http://www.guitartabs.cc/tabs/c/carcass/no_love_lost_btab.html ]
D |------------------------------------------------------------------------|
A |------------------------------------------------------------------------|
E |------------------------------------------------------------------------|
B |4-4-4-4-*-----4-4-4-3-3-3-3-*-----3-3-3-*-----3-3-3-*-----3-3-3-6-6-6-6-|

  ----------------------------------------------|
  ----------------------------------------------|
  ----------------------------------------------|
  -*-----6-6-6-5-5-5-5-*----------------2-1-----|

D |------------------------------------------------------------------------|
A |------------------------------------------------------------------------|
E |---------------------------------------------------------5--------------|
B |-0-h2-2-2-2---2-2-2-0-*-0-*-0-*-0-0-h3-3-3-3---3-3-3-5-6-----6-1---0----|h2

  -------------------------------------------------------------|
  -------------------------------------------------------------|
  -------------------------------------------------------------|
  -2-2-2---2-2-2-0-*-0-*-0-*-0-0-h3-3-3-3---3-3-0-0-0-0-0-0-0-0|

D |------------------------------------------------------------------------|
A |------------------------------------------------------------------------|
E |------------------------------------------------------------------------|
B |-0-h2-2-2-2---2-2-2-0-*-0-*-0-*-0-0-h3-3-3-3---3-3-3-0-*-0-*-0-*-0-0----|h2

  -------------------------------------------------------------------------|
  -------------------------------------------------------------------------|
  -------------------------------------------------------------------------|
  -2-2-2---2-2-2-0-*-0-*-0-*-0-0-h3-3-3-3---3-3-3-0-*-0-*-0-*-0-0-h2-2-2-2-|
Comments