Carbon Leaf - Maybe Today Chords & Tabs

 

Maybe Today Chords & Tabs

Carbon Leaf Chords & Tabs

Version: 1 Type: Tab 0 ratings
1 star 2 stars 3 stars 4 stars 5 stars
comments

Maybe Today Tab

This song is awsome


e------------------------------
b------------------------------
g--------------9--9------------
d-----11-------9--9------------
a-------11-----7--7------------
e-9-9-------7--7--7------------

Play four times
[ Tab from: http://www.guitartabs.cc/tabs/c/carbon_leaf/maybe_today_tab.html ]
e------------------------------
b------------------------------
g-------------7-7-7-7----------
d-----9-------7-7-7-7----------
a-------9-----5-5-7-7----------
e-7-7-----7-5-5-5-5-5----------

Play twice, then go back to first part



Chorus

e----------------------
b----------------------
g------9-------7-------
d-------9--------7-----
a--------7---------5---
e-7-7------5-5---------

Play this during the Chorus.

The end solo is just picking in C# Pentatonic, or E maj.


This song rules, listen to carbon leaf or I'll shank you.
Comments